ISO-10303-21;
HEADER;
FILE_DESCRIPTION (( 'STEP AP203' ),
    '1' );
FILE_NAME ('112-5105E CaF2 pl-cv 12.7 F-25.STEP',
    '2019-01-17T13:57:53',
    ( '' ),
    ( '' ),
    'SwSTEP 2.0',
    'SolidWorks 2017',
    '' );
FILE_SCHEMA (( 'CONFIG_CONTROL_DESIGN' ));
ENDSEC;

DATA;
#1 = COORDINATED_UNIVERSAL_TIME_OFFSET ( 2, 0, .AHEAD. ) ;
#2 = ADVANCED_FACE ( 'NONE', ( #31 ), #27, .F. ) ;
#3 = CARTESIAN_POINT ( 'NONE',  ( -1.840634485082553600, 6.414875029160953100, -2.197979765199843600 ) ) ;
#4 = CARTESIAN_POINT ( 'NONE',  ( -8.881784197001249400E-016, 2.486639941139157500, 0.8520172644230712400 ) ) ;
#5 = CARTESIAN_POINT ( 'NONE',  ( 0.0000000000000000000, 0.0000000000000000000, 0.0000000000000000000 ) ) ;
#6 = APPLICATION_PROTOCOL_DEFINITION ( 'international standard', 'config_control_design', 1994, #202 ) ;
#7 = CARTESIAN_POINT ( 'NONE',  ( -5.041322357129912400, -6.414875029160954000, -3.914310788637355800 ) ) ;
#8 = DIRECTION ( 'NONE',  ( 1.000000000000000000, 0.0000000000000000000, 0.0000000000000000000 ) ) ;
#9 = ORIENTED_EDGE ( 'NONE', *, *, #99, .T. ) ;
#10 = DIRECTION ( 'NONE',  ( 1.000000000000000000, 0.0000000000000000000, 0.0000000000000000000 ) ) ;
#11 = APPROVAL_ROLE ( '' ) ;
#12 = EDGE_CURVE ( 'NONE', #145, #85, #107, .T. ) ;
#13 = PERSON_AND_ORGANIZATION ( #139, #126 ) ;
#14 = AXIS2_PLACEMENT_3D ( 'NONE', #138, #201, #217 ) ;
#15 = CIRCLE ( 'NONE', #209, 10.45999999999999900 ) ;
#16 = CC_DESIGN_PERSON_AND_ORGANIZATION_ASSIGNMENT ( #73, #122, ( #162 ) ) ;
#17 = ORIENTED_EDGE ( 'NONE', *, *, #135, .T. ) ;
#18 = CARTESIAN_POINT ( 'NONE',  ( 2.520120803510706300, -2.486639941139157500, 0.8520172644230699100 ) ) ;
#19 = ADVANCED_FACE ( 'NONE', ( #163 ), #228, .F. ) ;
#20 = VERTEX_POINT ( 'NONE', #235 ) ;
#21 = DIRECTION ( 'NONE',  ( 1.000000000000000000, 0.0000000000000000000, -0.0000000000000000000 ) ) ;
#22 = AXIS2_PLACEMENT_3D ( 'NONE', #191, #77, #8 ) ;
#23 =( LENGTH_UNIT ( ) NAMED_UNIT ( * ) SI_UNIT ( .MILLI., .METRE. ) );
#24 = CARTESIAN_POINT ( 'NONE',  ( -3.583056588145347100, -6.414875029160954000, -2.791191803541403600 ) ) ;
#25 = DIRECTION ( 'NONE',  ( 0.0000000000000000000, 0.0000000000000000000, 1.000000000000000000 ) ) ;
#26 = DATE_TIME_ROLE ( 'classification_date' ) ;
#27 =( BOUNDED_SURFACE ( )  B_SPLINE_SURFACE ( 3, 3, ( 
 ( #132, #76, #150, #152 ),
 ( #4, #94, #218, #215 ),
 ( #71, #18, #186, #197 ),
 ( #184, #69, #214, #111 ) ),
 .UNSPECIFIED., .F., .F., .F. ) 
 B_SPLINE_SURFACE_WITH_KNOTS ( ( 4, 4 ),
 ( 4, 4 ),
 ( 0.0000000000000000000, 1.000000000000000000 ),
 ( 0.0000000000000000000, 1.000000000000000000 ),
 .UNSPECIFIED. ) 
 GEOMETRIC_REPRESENTATION_ITEM ( )  RATIONAL_B_SPLINE_SURFACE ( (
 ( 1.000000000000000000, 0.9644280698437693900, 0.9644280698437693900, 1.000000000000000000),
 ( 0.8599120608540571400, 0.8293233290848562900, 0.8293233290848562900, 0.8599120608540571400),
 ( 0.8599120608540571400, 0.8293233290848562900, 0.8293233290848562900, 0.8599120608540571400),
 ( 1.000000000000000000, 0.9644280698437693900, 0.9644280698437693900, 1.000000000000000000) ) ) 
 REPRESENTATION_ITEM ( '' )  SURFACE ( )  );
#28 = PERSON_AND_ORGANIZATION ( #139, #126 ) ;
#29 = EDGE_CURVE ( 'NONE', #85, #20, #54, .T. ) ;
#30 = LOCAL_TIME ( 15, 57, 53.00000000000000000, #79 ) ;
#31 = FACE_OUTER_BOUND ( 'NONE', #66, .T. ) ;
#32 = ADVANCED_BREP_SHAPE_REPRESENTATION ( '112-5105E CaF2 pl-cv 12.7 F-25', ( #172, #109 ), #166 ) ;
#33 = DATE_AND_TIME ( #121, #232 ) ;
#34 = AXIS2_PLACEMENT_3D ( 'NONE', #156, #158, #103 ) ;
#35 = DATE_AND_TIME ( #188, #125 ) ;
#36 = PRODUCT_DEFINITION_SHAPE ( 'NONE', 'NONE',  #123 ) ;
#37 = ADVANCED_FACE ( 'NONE', ( #181 ), #165, .T. ) ;
#38 = DIRECTION ( 'NONE',  ( 1.000000000000000000, 0.0000000000000000000, 0.0000000000000000000 ) ) ;
#39 = APPROVAL_PERSON_ORGANIZATION ( #144, #146, #11 ) ;
#40 = CARTESIAN_POINT ( 'NONE',  ( -6.902370596863465700, -2.486639941139158900, -1.497912367413478400 ) ) ;
#41 = CARTESIAN_POINT ( 'NONE',  ( -6.349999999999999600, 1.998896044546239400E-015, -2.148014677587549900 ) ) ;
#42 = CC_DESIGN_PERSON_AND_ORGANIZATION_ASSIGNMENT ( #87, #225, ( #127 ) ) ;
#43 = CARTESIAN_POINT ( 'NONE',  ( 6.349999999999999600, 1.221245327087670000E-015, -2.148014677587549900 ) ) ;
#44 = APPROVAL_STATUS ( 'not_yet_approved' ) ;
#45 = DATE_AND_TIME ( #115, #52 ) ;
#46 = AXIS2_PLACEMENT_3D ( 'NONE', #178, #187, #10 ) ;
#47 = ORIENTED_EDGE ( 'NONE', *, *, #135, .F. ) ;
#48 = AXIS2_PLACEMENT_3D ( 'NONE', #59, #154, #116 ) ;
#49 = CLOSED_SHELL ( 'NONE', ( #19, #37, #199, #2, #75 ) ) ;
#50 = VECTOR ( 'NONE', #200, 1000.000000000000000 ) ;
#51 = DESIGN_CONTEXT ( 'detailed design', #230, 'design' ) ;
#52 = LOCAL_TIME ( 15, 57, 53.00000000000000000, #104 ) ;
#53 = EDGE_CURVE ( 'NONE', #20, #85, #234, .T. ) ;
#54 = CIRCLE ( 'NONE', #34, 6.349999999999999600 ) ;
#55 = CARTESIAN_POINT ( 'NONE',  ( -5.041322357129915100, 6.414875029160953100, -3.914310788637354900 ) ) ;
#56 = CARTESIAN_POINT ( 'NONE',  ( 2.498001805406600200E-016, 1.221245327087670000E-015, -2.148014677587549900 ) ) ;
#57 = AXIS2_PLACEMENT_3D ( 'NONE', #222, #133, #38 ) ;
#58 = CARTESIAN_POINT ( 'NONE',  ( -4.905773265209799000, -2.486639941139158000, 0.03981581387244351900 ) ) ;
#59 = CARTESIAN_POINT ( 'NONE',  ( 2.498001805406600200E-016, 1.221245327087670000E-015, -2.148014677587549900 ) ) ;
#60 = CYLINDRICAL_SURFACE ( 'NONE', #14, 6.349999999999999600 ) ;
#61 = CARTESIAN_POINT ( 'NONE',  ( -6.349999999999999600, 1.998896044546239400E-015, -2.148014677587549900 ) ) ;
#62 = DATE_TIME_ROLE ( 'creation_date' ) ;
#63 = ORIENTED_EDGE ( 'NONE', *, *, #99, .F. ) ;
#64 = EDGE_LOOP ( 'NONE', ( #231, #17, #70 ) ) ;
#65 = CC_DESIGN_PERSON_AND_ORGANIZATION_ASSIGNMENT ( #28, #106, ( #83 ) ) ;
#66 = EDGE_LOOP ( 'NONE', ( #47, #112, #192 ) ) ;
#67 = APPROVAL_DATE_TIME ( #33, #182 ) ;
#68 = EDGE_CURVE ( 'NONE', #145, #147, #149, .T. ) ;
#69 = CARTESIAN_POINT ( 'NONE',  ( 1.840634485082550000, -6.414875029160953100, -2.197979765199845400 ) ) ;
#70 = ORIENTED_EDGE ( 'NONE', *, *, #81, .F. ) ;
#71 = CARTESIAN_POINT ( 'NONE',  ( -8.881784197001249400E-016, -2.486639941139157500, 0.8520172644230698000 ) ) ;
#72 = PERSON_AND_ORGANIZATION ( #139, #126 ) ;
#73 = PERSON_AND_ORGANIZATION ( #139, #126 ) ;
#74 = CARTESIAN_POINT ( 'NONE',  ( -8.881784197001248400E-016, 6.349999999999999600, -2.148014677587549500 ) ) ;
#75 = ADVANCED_FACE ( 'NONE', ( #195 ), #223, .T. ) ;
#76 = CARTESIAN_POINT ( 'NONE',  ( 1.840634485082550900, 6.414875029160954000, -2.197979765199843600 ) ) ;
#77 = DIRECTION ( 'NONE',  ( 0.0000000000000000000, 0.0000000000000000000, 1.000000000000000000 ) ) ;
#78 = ORIENTED_EDGE ( 'NONE', *, *, #29, .T. ) ;
#79 = COORDINATED_UNIVERSAL_TIME_OFFSET ( 2, 0, .AHEAD. ) ;
#80 = CARTESIAN_POINT ( 'NONE',  ( 0.0000000000000000000, 13.15799999999999900, 1.899999999999999900 ) ) ;
#81 = EDGE_CURVE ( 'NONE', #157, #169, #120, .T. ) ;
#82 = DIRECTION ( 'NONE',  ( 0.0000000000000000000, 0.0000000000000000000, 1.000000000000000000 ) ) ;
#83 = PRODUCT ( '112-5105E CaF2 pl-cv 12.7 F-25', '112-5105E CaF2 pl-cv 12.7 F-25', '', ( #210 ) ) ;
#84 = AXIS2_PLACEMENT_3D ( 'NONE', #101, #136, #221 ) ;
#85 = VERTEX_POINT ( 'NONE', #204 ) ;
#86 = CIRCLE ( 'NONE', #203, 6.349999999999999600 ) ;
#87 = PERSON_AND_ORGANIZATION ( #139, #126 ) ;
#88 = APPROVAL_DATE_TIME ( #134, #90 ) ;
#89 = LINE ( 'NONE', #61, #92 ) ;
#90 = APPROVAL ( #44, 'UNSPECIFIED' ) ;
#91 = COORDINATED_UNIVERSAL_TIME_OFFSET ( 2, 0, .AHEAD. ) ;
#92 = VECTOR ( 'NONE', #100, 1000.000000000000000 ) ;
#93 = CC_DESIGN_PERSON_AND_ORGANIZATION_ASSIGNMENT ( #213, #227, ( #123 ) ) ;
#94 = CARTESIAN_POINT ( 'NONE',  ( 2.520120803510706300, 2.486639941139157500, 0.8520172644230712400 ) ) ;
#95 = CARTESIAN_POINT ( 'NONE',  ( 6.349999999999999600, 1.221245327087670000E-015, -2.148014677587549900 ) ) ;
#96 = UNCERTAINTY_MEASURE_WITH_UNIT (LENGTH_MEASURE( 1.000000000000000100E-005 ), #23, 'distance_accuracy_value', 'NONE');
#97 = CARTESIAN_POINT ( 'NONE',  ( -3.583056588145348900, 6.414875029160953100, -2.791191803541402300 ) ) ;
#98 = EDGE_LOOP ( 'NONE', ( #212, #205, #9, #148, #161 ) ) ;
#99 = EDGE_CURVE ( 'NONE', #157, #20, #89, .T. ) ;
#100 = DIRECTION ( 'NONE',  ( 0.0000000000000000000, 0.0000000000000000000, 1.000000000000000000 ) ) ;
#101 = CARTESIAN_POINT ( 'NONE',  ( 2.498001805406600200E-016, 1.221245327087670000E-015, -2.148014677587549900 ) ) ;
#102 = EDGE_LOOP ( 'NONE', ( #141, #207 ) ) ;
#103 = DIRECTION ( 'NONE',  ( 1.000000000000000000, 0.0000000000000000000, 0.0000000000000000000 ) ) ;
#104 = COORDINATED_UNIVERSAL_TIME_OFFSET ( 2, 0, .AHEAD. ) ;
#105 = CC_DESIGN_APPROVAL ( #90, ( #123 ) ) ;
#106 = PERSON_AND_ORGANIZATION_ROLE ( 'design_owner' ) ;
#107 = LINE ( 'NONE', #95, #50 ) ;
#108 = SECURITY_CLASSIFICATION_LEVEL ( 'unclassified' ) ;
#109 = AXIS2_PLACEMENT_3D ( 'NONE', #5, #176, #118 ) ;
#110 = FACE_OUTER_BOUND ( 'NONE', #185, .T. ) ;
#111 = CARTESIAN_POINT ( 'NONE',  ( 5.041322357129907900, -6.414875029160954000, -3.914310788637354000 ) ) ;
#112 = ORIENTED_EDGE ( 'NONE', *, *, #68, .F. ) ;
#113 = CIRCLE ( 'NONE', #57, 6.349999999999999600 ) ;
#114 = CARTESIAN_POINT ( 'NONE',  ( -6.902370596863466500, 2.486639941139157100, -1.497912367413476900 ) ) ;
#115 = CALENDAR_DATE ( 2019, 17, 1 ) ;
#116 = DIRECTION ( 'NONE',  ( 1.000000000000000000, 0.0000000000000000000, 0.0000000000000000000 ) ) ;
#117 = CARTESIAN_POINT ( 'NONE',  ( -4.336808689942017700E-015, -2.486639941139158000, 0.8520172644230698000 ) ) ;
#118 = DIRECTION ( 'NONE',  ( 1.000000000000000000, 0.0000000000000000000, 0.0000000000000000000 ) ) ;
#119 = CC_DESIGN_APPROVAL ( #146, ( #162 ) ) ;
#120 = CIRCLE ( 'NONE', #48, 6.349999999999999600 ) ;
#121 = CALENDAR_DATE ( 2019, 17, 1 ) ;
#122 = PERSON_AND_ORGANIZATION_ROLE ( 'creator' ) ;
#123 = PRODUCT_DEFINITION ( 'UNKNOWN', '', #162, #51 ) ;
#124 = APPROVAL_ROLE ( '' ) ;
#125 = LOCAL_TIME ( 15, 57, 53.00000000000000000, #91 ) ;
#126 = ORGANIZATION ( 'UNSPECIFIED', 'UNSPECIFIED', '' ) ;
#127 = SECURITY_CLASSIFICATION ( '', '', #108 ) ;
#128 = APPROVAL_DATE_TIME ( #129, #146 ) ;
#129 = DATE_AND_TIME ( #180, #219 ) ;
#130 = CC_DESIGN_DATE_AND_TIME_ASSIGNMENT ( #35, #62, ( #123 ) ) ;
#131 = CARTESIAN_POINT ( 'NONE',  ( -4.905773265209799800, 2.486639941139157500, 0.03981581387244503800 ) ) ;
#132 = CARTESIAN_POINT ( 'NONE',  ( -8.881784197001248400E-016, 6.414875029160954000, -2.197979765199843600 ) ) ;
#133 = DIRECTION ( 'NONE',  ( 0.0000000000000000000, 0.0000000000000000000, 1.000000000000000000 ) ) ;
#134 = DATE_AND_TIME ( #175, #30 ) ;
#135 = EDGE_CURVE ( 'NONE', #147, #169, #15, .T. ) ;
#136 = DIRECTION ( 'NONE',  ( 0.0000000000000000000, 0.0000000000000000000, 1.000000000000000000 ) ) ;
#137 = CARTESIAN_POINT ( 'NONE',  ( -2.520120803510710800, -2.486639941139158000, 0.8520172644230691300 ) ) ;
#138 = CARTESIAN_POINT ( 'NONE',  ( 2.498001805406600200E-016, 1.221245327087670000E-015, -2.148014677587549900 ) ) ;
#139 = PERSON ( 'UNSPECIFIED', 'UNSPECIFIED', 'UNSPECIFIED', ('UNSPECIFIED'), ('UNSPECIFIED'), ('UNSPECIFIED') ) ;
#140 = PERSON_AND_ORGANIZATION_ROLE ( 'design_supplier' ) ;
#141 = ORIENTED_EDGE ( 'NONE', *, *, #29, .F. ) ;
#142 = CC_DESIGN_APPROVAL ( #182, ( #127 ) ) ;
#143 = APPROVAL_STATUS ( 'not_yet_approved' ) ;
#144 = PERSON_AND_ORGANIZATION ( #139, #126 ) ;
#145 = VERTEX_POINT ( 'NONE', #43 ) ;
#146 = APPROVAL ( #143, 'UNSPECIFIED' ) ;
#147 = VERTEX_POINT ( 'NONE', #74 ) ;
#148 = ORIENTED_EDGE ( 'NONE', *, *, #53, .T. ) ;
#149 = CIRCLE ( 'NONE', #22, 6.349999999999999600 ) ;
#150 = CARTESIAN_POINT ( 'NONE',  ( 3.583056588145346200, 6.414875029160953100, -2.791191803541402300 ) ) ;
#151 = CC_DESIGN_SECURITY_CLASSIFICATION ( #127, ( #162 ) ) ;
#152 = CARTESIAN_POINT ( 'NONE',  ( 5.041322357129912400, 6.414875029160953100, -3.914310788637354000 ) ) ;
#153 = CARTESIAN_POINT ( 'NONE',  ( -8.881784197001248400E-016, -6.349999999999997900, -2.148014677587550400 ) ) ;
#154 = DIRECTION ( 'NONE',  ( 0.0000000000000000000, 0.0000000000000000000, 1.000000000000000000 ) ) ;
#155 = CARTESIAN_POINT ( 'NONE',  ( -1.840634485082553300, -6.414875029160954000, -2.197979765199845400 ) ) ;
#156 = CARTESIAN_POINT ( 'NONE',  ( 2.498001805406600200E-016, 1.221245327087670000E-015, 1.900000000000000100 ) ) ;
#157 = VERTEX_POINT ( 'NONE', #41 ) ;
#158 = DIRECTION ( 'NONE',  ( -0.0000000000000000000, -0.0000000000000000000, -1.000000000000000000 ) ) ;
#159 = APPROVAL_ROLE ( '' ) ;
#160 = CC_DESIGN_PERSON_AND_ORGANIZATION_ASSIGNMENT ( #13, #140, ( #162 ) ) ;
#161 = ORIENTED_EDGE ( 'NONE', *, *, #12, .F. ) ;
#162 = PRODUCT_DEFINITION_FORMATION_WITH_SPECIFIED_SOURCE ( 'ANY', '', #83, .NOT_KNOWN. ) ;
#163 = FACE_OUTER_BOUND ( 'NONE', #64, .T. ) ;
#164 = ORIENTED_EDGE ( 'NONE', *, *, #81, .T. ) ;
#165 = CYLINDRICAL_SURFACE ( 'NONE', #84, 6.349999999999999600 ) ;
#166 =( GEOMETRIC_REPRESENTATION_CONTEXT ( 3 ) GLOBAL_UNCERTAINTY_ASSIGNED_CONTEXT ( ( #96 ) ) GLOBAL_UNIT_ASSIGNED_CONTEXT ( ( #23, #220, #173 ) ) REPRESENTATION_CONTEXT ( 'NONE', 'WORKASPACE' ) );
#167 = SHAPE_DEFINITION_REPRESENTATION ( #36, #32 ) ;
#168 = PRODUCT_RELATED_PRODUCT_CATEGORY ( 'detail', '', ( #83 ) ) ;
#169 = VERTEX_POINT ( 'NONE', #153 ) ;
#170 = DIRECTION ( 'NONE',  ( 0.0000000000000000000, 1.000000000000000000, -3.316870890969038500E-016 ) ) ;
#171 = PERSON_AND_ORGANIZATION ( #139, #126 ) ;
#172 = MANIFOLD_SOLID_BREP ( 'Imported1', #49 ) ;
#173 =( NAMED_UNIT ( * ) SI_UNIT ( $, .STERADIAN. ) SOLID_ANGLE_UNIT ( ) );
#174 = CARTESIAN_POINT ( 'NONE',  ( -2.520120803510709900, 2.486639941139157500, 0.8520172644230716900 ) ) ;
#175 = CALENDAR_DATE ( 2019, 17, 1 ) ;
#176 = DIRECTION ( 'NONE',  ( 0.0000000000000000000, 0.0000000000000000000, 1.000000000000000000 ) ) ;
#177 = CARTESIAN_POINT ( 'NONE',  ( -2.602085213965210200E-015, 2.486639941139157500, 0.8520172644230720200 ) ) ;
#178 = CARTESIAN_POINT ( 'NONE',  ( 2.498001805406600200E-016, 1.221245327087670000E-015, 1.900000000000000100 ) ) ;
#179 = CARTESIAN_POINT ( 'NONE',  ( -8.881784197001250400E-016, 8.881784197001250400E-016, -10.46000000000000100 ) ) ;
#180 = CALENDAR_DATE ( 2019, 17, 1 ) ;
#181 = FACE_OUTER_BOUND ( 'NONE', #98, .T. ) ;
#182 = APPROVAL ( #206, 'UNSPECIFIED' ) ;
#183 = APPROVAL_PERSON_ORGANIZATION ( #72, #90, #124 ) ;
#184 = CARTESIAN_POINT ( 'NONE',  ( -8.881784197001248400E-016, -6.414875029160953100, -2.197979765199845400 ) ) ;
#185 = EDGE_LOOP ( 'NONE', ( #63, #164, #208, #196, #78 ) ) ;
#186 = CARTESIAN_POINT ( 'NONE',  ( 4.905773265209794500, -2.486639941139158000, 0.03981581387244481600 ) ) ;
#187 = DIRECTION ( 'NONE',  ( -0.0000000000000000000, -0.0000000000000000000, -1.000000000000000000 ) ) ;
#188 = CALENDAR_DATE ( 2019, 17, 1 ) ;
#189 = DIRECTION ( 'NONE',  ( 1.000000000000000000, 0.0000000000000000000, 0.0000000000000000000 ) ) ;
#190 = CARTESIAN_POINT ( 'NONE',  ( -2.602085213965210600E-015, -6.414875029160954000, -2.197979765199844900 ) ) ;
#191 = CARTESIAN_POINT ( 'NONE',  ( 2.498001805406600200E-016, 1.221245327087670000E-015, -2.148014677587549900 ) ) ;
#192 = ORIENTED_EDGE ( 'NONE', *, *, #198, .F. ) ;
#193 = APPLICATION_PROTOCOL_DEFINITION ( 'international standard', 'config_control_design', 1994, #230 ) ;
#194 = EDGE_CURVE ( 'NONE', #147, #157, #113, .T. ) ;
#195 = FACE_OUTER_BOUND ( 'NONE', #102, .T. ) ;
#196 = ORIENTED_EDGE ( 'NONE', *, *, #12, .T. ) ;
#197 = CARTESIAN_POINT ( 'NONE',  ( 6.902370596863462100, -2.486639941139158900, -1.497912367413476200 ) ) ;
#198 = EDGE_CURVE ( 'NONE', #169, #145, #86, .T. ) ;
#199 = ADVANCED_FACE ( 'NONE', ( #110 ), #60, .T. ) ;
#200 = DIRECTION ( 'NONE',  ( 0.0000000000000000000, 0.0000000000000000000, 1.000000000000000000 ) ) ;
#201 = DIRECTION ( 'NONE',  ( 0.0000000000000000000, 0.0000000000000000000, 1.000000000000000000 ) ) ;
#202 = APPLICATION_CONTEXT ( 'configuration controlled 3d designs of mechanical parts and assemblies' ) ;
#203 = AXIS2_PLACEMENT_3D ( 'NONE', #56, #25, #189 ) ;
#204 = CARTESIAN_POINT ( 'NONE',  ( 6.349999999999999600, 1.221245327087670000E-015, 1.900000000000000100 ) ) ;
#205 = ORIENTED_EDGE ( 'NONE', *, *, #194, .T. ) ;
#206 = APPROVAL_STATUS ( 'not_yet_approved' ) ;
#207 = ORIENTED_EDGE ( 'NONE', *, *, #53, .F. ) ;
#208 = ORIENTED_EDGE ( 'NONE', *, *, #198, .T. ) ;
#209 = AXIS2_PLACEMENT_3D ( 'NONE', #179, #224, #170 ) ;
#210 = MECHANICAL_CONTEXT ( 'NONE', #202, 'mechanical' ) ;
#211 = APPROVAL_PERSON_ORGANIZATION ( #171, #182, #159 ) ;
#212 = ORIENTED_EDGE ( 'NONE', *, *, #68, .T. ) ;
#213 = PERSON_AND_ORGANIZATION ( #139, #126 ) ;
#214 = CARTESIAN_POINT ( 'NONE',  ( 3.583056588145341800, -6.414875029160954000, -2.791191803541402700 ) ) ;
#215 = CARTESIAN_POINT ( 'NONE',  ( 6.902370596863463000, 2.486639941139157100, -1.497912367413475600 ) ) ;
#216 = CARTESIAN_POINT ( 'NONE',  ( -1.734723475976807100E-015, 6.414875029160953100, -2.197979765199843600 ) ) ;
#217 = DIRECTION ( 'NONE',  ( 1.000000000000000000, 0.0000000000000000000, 0.0000000000000000000 ) ) ;
#218 = CARTESIAN_POINT ( 'NONE',  ( 4.905773265209795400, 2.486639941139157100, 0.03981581387244590600 ) ) ;
#219 = LOCAL_TIME ( 15, 57, 53.00000000000000000, #229 ) ;
#220 =( NAMED_UNIT ( * ) PLANE_ANGLE_UNIT ( ) SI_UNIT ( $, .RADIAN. ) );
#221 = DIRECTION ( 'NONE',  ( 1.000000000000000000, 0.0000000000000000000, 0.0000000000000000000 ) ) ;
#222 = CARTESIAN_POINT ( 'NONE',  ( 2.498001805406600200E-016, 1.221245327087670000E-015, -2.148014677587549900 ) ) ;
#223 = PLANE ( 'NONE',  #226 ) ;
#224 = DIRECTION ( 'NONE',  ( 1.000000000000000000, 0.0000000000000000000, 0.0000000000000000000 ) ) ;
#225 = PERSON_AND_ORGANIZATION_ROLE ( 'classification_officer' ) ;
#226 = AXIS2_PLACEMENT_3D ( 'NONE', #80, #82, #21 ) ;
#227 = PERSON_AND_ORGANIZATION_ROLE ( 'creator' ) ;
#228 =( BOUNDED_SURFACE ( )  B_SPLINE_SURFACE ( 3, 3, ( 
 ( #55, #97, #3, #216 ),
 ( #114, #131, #174, #177 ),
 ( #40, #58, #137, #117 ),
 ( #7, #24, #155, #190 ) ),
 .UNSPECIFIED., .F., .F., .F. ) 
 B_SPLINE_SURFACE_WITH_KNOTS ( ( 4, 4 ),
 ( 4, 4 ),
 ( 0.0000000000000000000, 1.000000000000000000 ),
 ( 0.0000000000000000000, 1.000000000000000000 ),
 .UNSPECIFIED. ) 
 GEOMETRIC_REPRESENTATION_ITEM ( )  RATIONAL_B_SPLINE_SURFACE ( (
 ( 1.000000000000000000, 0.9644280698437693900, 0.9644280698437693900, 1.000000000000000000),
 ( 0.8599120608540571400, 0.8293233290848562900, 0.8293233290848562900, 0.8599120608540571400),
 ( 0.8599120608540571400, 0.8293233290848562900, 0.8293233290848562900, 0.8599120608540571400),
 ( 1.000000000000000000, 0.9644280698437693900, 0.9644280698437693900, 1.000000000000000000) ) ) 
 REPRESENTATION_ITEM ( '' )  SURFACE ( )  );
#229 = COORDINATED_UNIVERSAL_TIME_OFFSET ( 2, 0, .AHEAD. ) ;
#230 = APPLICATION_CONTEXT ( 'configuration controlled 3d designs of mechanical parts and assemblies' ) ;
#231 = ORIENTED_EDGE ( 'NONE', *, *, #194, .F. ) ;
#232 = LOCAL_TIME ( 15, 57, 53.00000000000000000, #1 ) ;
#233 = CC_DESIGN_DATE_AND_TIME_ASSIGNMENT ( #45, #26, ( #127 ) ) ;
#234 = CIRCLE ( 'NONE', #46, 6.349999999999999600 ) ;
#235 = CARTESIAN_POINT ( 'NONE',  ( -6.349999999999999600, 1.998896044546239400E-015, 1.900000000000000100 ) ) ;
ENDSEC;
END-ISO-10303-21;
