ISO-10303-21;
HEADER;
FILE_DESCRIPTION (( 'STEP AP203' ),
    '1' );
FILE_NAME ('112-1540E UVFS pl-cv 50.8 F-2000.STEP',
    '2019-01-17T11:03:43',
    ( '' ),
    ( '' ),
    'SwSTEP 2.0',
    'SolidWorks 2017',
    '' );
FILE_SCHEMA (( 'CONFIG_CONTROL_DESIGN' ));
ENDSEC;

DATA;
#1 = CARTESIAN_POINT ( 'NONE',  ( -17.03048887340761300, -25.70472636270992700, -0.4613314868945435600 ) ) ;
#2 = CC_DESIGN_DATE_AND_TIME_ASSIGNMENT ( #98, #17, ( #24 ) ) ;
#3 = PERSON_AND_ORGANIZATION ( #141, #184 ) ;
#4 = ADVANCED_FACE ( 'NONE', ( #25 ), #11, .T. ) ;
#5 = APPROVAL_PERSON_ORGANIZATION ( #201, #189, #163 ) ;
#6 = EDGE_LOOP ( 'NONE', ( #120, #123 ) ) ;
#7 = DATE_AND_TIME ( #88, #223 ) ;
#8 = ORIENTED_EDGE ( 'NONE', *, *, #80, .F. ) ;
#9 = DIRECTION ( 'NONE',  ( 1.000000000000000000, 0.0000000000000000000, -0.0000000000000000000 ) ) ;
#10 = ORIENTED_EDGE ( 'NONE', *, *, #185, .F. ) ;
#11 = PLANE ( 'NONE',  #126 ) ;
#12 = DIRECTION ( 'NONE',  ( 1.000000000000000000, 0.0000000000000000000, 0.0000000000000000000 ) ) ;
#13 = ORIENTED_EDGE ( 'NONE', *, *, #130, .T. ) ;
#14 = DIRECTION ( 'NONE',  ( 0.0000000000000000000, 0.0000000000000000000, 1.000000000000000000 ) ) ;
#15 = PRODUCT_DEFINITION_FORMATION_WITH_SPECIFIED_SOURCE ( 'ANY', '', #54, .NOT_KNOWN. ) ;
#16 = CARTESIAN_POINT ( 'NONE',  ( 3.261280134836397300E-013, 25.70472636270969200, -0.3470504155934041600 ) ) ;
#17 = DATE_TIME_ROLE ( 'creation_date' ) ;
#18 = APPLICATION_PROTOCOL_DEFINITION ( 'international standard', 'config_control_design', 1994, #233 ) ;
#19 = DIRECTION ( 'NONE',  ( 1.000000000000000000, 0.0000000000000000000, 0.0000000000000000000 ) ) ;
#20 = CIRCLE ( 'NONE', #212, 25.39999999999999900 ) ;
#21 = PERSON_AND_ORGANIZATION_ROLE ( 'design_supplier' ) ;
#22 = ORIENTED_EDGE ( 'NONE', *, *, #227, .T. ) ;
#23 = ADVANCED_FACE ( 'NONE', ( #67 ), #34, .T. ) ;
#24 = PRODUCT_DEFINITION ( 'UNKNOWN', '', #15, #162 ) ;
#25 = FACE_OUTER_BOUND ( 'NONE', #6, .T. ) ;
#26 = CARTESIAN_POINT ( 'NONE',  ( 8.519768346207738900, 8.570324769625676400, 0.1157115905883160500 ) ) ;
#27 = CIRCLE ( 'NONE', #115, 952.1000000000000200 ) ;
#28 = EDGE_LOOP ( 'NONE', ( #166, #69, #65 ) ) ;
#29 = LINE ( 'NONE', #156, #109 ) ;
#30 = CARTESIAN_POINT ( 'NONE',  ( 25.39999999999999900, 4.884981308350691100E-015, -0.3388692534244989700 ) ) ;
#31 = DIRECTION ( 'NONE',  ( -0.0000000000000000000, -0.0000000000000000000, -1.000000000000000000 ) ) ;
#32 = CARTESIAN_POINT ( 'NONE',  ( 25.39999999999999900, 4.884981308350691100E-015, -0.3388692534244989700 ) ) ;
#33 = DIRECTION ( 'NONE',  ( 2.441640666974649900E-016, 1.000000000000000000, 2.332156337832489300E-016 ) ) ;
#34 = CYLINDRICAL_SURFACE ( 'NONE', #37, 25.39999999999999900 ) ;
#35 = ORIENTED_EDGE ( 'NONE', *, *, #198, .T. ) ;
#36 = CARTESIAN_POINT ( 'NONE',  ( -25.55546896474329100, -8.570324769625912600, -0.2272777277613290400 ) ) ;
#37 = AXIS2_PLACEMENT_3D ( 'NONE', #151, #117, #51 ) ;
#38 = MECHANICAL_CONTEXT ( 'NONE', #91, 'mechanical' ) ;
#39 =( LENGTH_UNIT ( ) NAMED_UNIT ( * ) SI_UNIT ( .MILLI., .METRE. ) );
#40 = APPROVAL_STATUS ( 'not_yet_approved' ) ;
#41 = SHAPE_DEFINITION_REPRESENTATION ( #150, #71 ) ;
#42 = EDGE_LOOP ( 'NONE', ( #10, #229, #13, #99, #149 ) ) ;
#43 = CC_DESIGN_APPROVAL ( #116, ( #15 ) ) ;
#44 = CALENDAR_DATE ( 2019, 17, 1 ) ;
#45 = CALENDAR_DATE ( 2019, 17, 1 ) ;
#46 = DATE_AND_TIME ( #44, #133 ) ;
#47 = COORDINATED_UNIVERSAL_TIME_OFFSET ( 2, 0, .AHEAD. ) ;
#48 = CARTESIAN_POINT ( 'NONE',  ( 17.03876945000181200, 8.570324769625672800, 0.001374953462173692700 ) ) ;
#49 = CARTESIAN_POINT ( 'NONE',  ( -25.39999999999999900, 7.995584178184967200E-015, 5.799999999999999800 ) ) ;
#50 = CC_DESIGN_APPROVAL ( #189, ( #220 ) ) ;
#51 = DIRECTION ( 'NONE',  ( 1.000000000000000000, 0.0000000000000000000, 0.0000000000000000000 ) ) ;
#52 = CIRCLE ( 'NONE', #101, 25.39999999999999900 ) ;
#53 = AXIS2_PLACEMENT_3D ( 'NONE', #72, #124, #210 ) ;
#54 = PRODUCT ( '112-1540E UVFS pl-cv 50.8 F-2000', '112-1540E UVFS pl-cv 50.8 F-2000', '', ( #38 ) ) ;
#55 = DIRECTION ( 'NONE',  ( 1.000000000000000000, 0.0000000000000000000, 0.0000000000000000000 ) ) ;
#56 = CARTESIAN_POINT ( 'NONE',  ( -25.39999999999999900, 7.995584178184967200E-015, -0.3388692534244989700 ) ) ;
#57 = CALENDAR_DATE ( 2019, 17, 1 ) ;
#58 = CARTESIAN_POINT ( 'NONE',  ( 1.136868377216160000E-013, -1.705302565824239900E-013, -952.1000000000000200 ) ) ;
#59 = CARTESIAN_POINT ( 'NONE',  ( 25.54304940482342800, -25.70472636270994100, -0.6898730464759100800 ) ) ;
#60 = CARTESIAN_POINT ( 'NONE',  ( 5.555825245909860300E-013, 25.40000000000024400, -0.3388692534244554500 ) ) ;
#61 = VERTEX_POINT ( 'NONE', #49 ) ;
#62 = APPROVAL_STATUS ( 'not_yet_approved' ) ;
#63 = CARTESIAN_POINT ( 'NONE',  ( 3.122502256758251800E-013, -8.570324769625919700, 0.1157115905882670200 ) ) ;
#64 = APPROVAL_ROLE ( '' ) ;
#65 = ORIENTED_EDGE ( 'NONE', *, *, #130, .F. ) ;
#66 = APPROVAL ( #110, 'UNSPECIFIED' ) ;
#67 = FACE_OUTER_BOUND ( 'NONE', #42, .T. ) ;
#68 = ORIENTED_EDGE ( 'NONE', *, *, #113, .F. ) ;
#69 = ORIENTED_EDGE ( 'NONE', *, *, #198, .F. ) ;
#70 = CIRCLE ( 'NONE', #138, 25.39999999999999900 ) ;
#71 = ADVANCED_BREP_SHAPE_REPRESENTATION ( '112-1540E UVFS pl-cv 50.8 F-2000', ( #85, #205 ), #235 ) ;
#72 = CARTESIAN_POINT ( 'NONE',  ( 9.992007221626412800E-016, 4.884981308350691100E-015, -0.3388692534244989700 ) ) ;
#73 = CARTESIAN_POINT ( 'NONE',  ( 25.55546896474361100, -8.570324769625926800, -0.2272777277612974300 ) ) ;
#74 = ORIENTED_EDGE ( 'NONE', *, *, #80, .T. ) ;
#75 =( NAMED_UNIT ( * ) PLANE_ANGLE_UNIT ( ) SI_UNIT ( $, .RADIAN. ) );
#76 = APPLICATION_PROTOCOL_DEFINITION ( 'international standard', 'config_control_design', 1994, #91 ) ;
#77 = LINE ( 'NONE', #30, #97 ) ;
#78 = ORIENTED_EDGE ( 'NONE', *, *, #139, .T. ) ;
#79 = ADVANCED_FACE ( 'NONE', ( #83 ), #96, .F. ) ;
#80 = EDGE_CURVE ( 'NONE', #211, #172, #92, .T. ) ;
#81 = PERSON_AND_ORGANIZATION ( #141, #184 ) ;
#82 = CLOSED_SHELL ( 'NONE', ( #186, #164, #79, #23, #4 ) ) ;
#83 = FACE_OUTER_BOUND ( 'NONE', #28, .T. ) ;
#84 = CARTESIAN_POINT ( 'NONE',  ( -8.519768346207047900, 8.570324769625679900, 0.1157115905882705900 ) ) ;
#85 = MANIFOLD_SOLID_BREP ( 'Imported1', #82 ) ;
#86 = DIRECTION ( 'NONE',  ( 1.000000000000000000, 0.0000000000000000000, 0.0000000000000000000 ) ) ;
#87 = CARTESIAN_POINT ( 'NONE',  ( 17.03048887340810700, -25.70472636270993400, -0.4613314868945159200 ) ) ;
#88 = CALENDAR_DATE ( 2019, 17, 1 ) ;
#89 = CC_DESIGN_PERSON_AND_ORGANIZATION_ASSIGNMENT ( #95, #146, ( #220 ) ) ;
#90 = CARTESIAN_POINT ( 'NONE',  ( 0.0000000000000000000, 0.0000000000000000000, 0.0000000000000000000 ) ) ;
#91 = APPLICATION_CONTEXT ( 'configuration controlled 3d designs of mechanical parts and assemblies' ) ;
#92 = CIRCLE ( 'NONE', #53, 25.39999999999999900 ) ;
#93 = PERSON_AND_ORGANIZATION_ROLE ( 'design_owner' ) ;
#94 = CARTESIAN_POINT ( 'NONE',  ( 3.122502256758252800E-013, -25.70472636270993400, -0.3470504155934041600 ) ) ;
#95 = PERSON_AND_ORGANIZATION ( #141, #184 ) ;
#96 =( BOUNDED_SURFACE ( )  B_SPLINE_SURFACE ( 3, 3, ( 
 ( #175, #218, #193, #222 ),
 ( #196, #26, #48, #114 ),
 ( #230, #118, #121, #73 ),
 ( #177, #231, #87, #59 ) ),
 .UNSPECIFIED., .F., .F., .T. ) 
 B_SPLINE_SURFACE_WITH_KNOTS ( ( 4, 4 ),
 ( 4, 4 ),
 ( 0.0000000000000000000, 1.000000000000000000 ),
 ( 0.0000000000000000000, 1.000000000000000000 ),
 .UNSPECIFIED. ) 
 GEOMETRIC_REPRESENTATION_ITEM ( )  RATIONAL_B_SPLINE_SURFACE ( (
 ( 1.000000000000000000, 0.9999399637500351300, 0.9999399637500351300, 1.000000000000000000),
 ( 0.9997569930220261400, 0.9996969713612889900, 0.9996969713612889900, 0.9997569930220261400),
 ( 0.9997569930220261400, 0.9996969713612889900, 0.9996969713612889900, 0.9997569930220261400),
 ( 1.000000000000000000, 0.9999399637500351300, 0.9999399637500351300, 1.000000000000000000) ) ) 
 REPRESENTATION_ITEM ( '' )  SURFACE ( )  );
#97 = VECTOR ( 'NONE', #140, 1000.000000000000000 ) ;
#98 = DATE_AND_TIME ( #45, #199 ) ;
#99 = ORIENTED_EDGE ( 'NONE', *, *, #105, .T. ) ;
#100 = CC_DESIGN_SECURITY_CLASSIFICATION ( #220, ( #15 ) ) ;
#101 = AXIS2_PLACEMENT_3D ( 'NONE', #108, #160, #214 ) ;
#102 = CARTESIAN_POINT ( 'NONE',  ( 3.191891195797324500E-013, 8.570324769625676400, 0.1157115905882687600 ) ) ;
#103 = CARTESIAN_POINT ( 'NONE',  ( 9.992007221626412800E-016, 4.884981308350691100E-015, -0.3388692534244989700 ) ) ;
#104 = APPROVAL_PERSON_ORGANIZATION ( #148, #66, #64 ) ;
#105 = EDGE_CURVE ( 'NONE', #157, #180, #77, .T. ) ;
#106 = DIRECTION ( 'NONE',  ( 0.0000000000000000000, 0.0000000000000000000, 1.000000000000000000 ) ) ;
#107 = CARTESIAN_POINT ( 'NONE',  ( -25.54304940482311500, -25.70472636270992700, -0.6898730464759417200 ) ) ;
#108 = CARTESIAN_POINT ( 'NONE',  ( 9.992007221626412800E-016, 4.884981308350691100E-015, -0.3388692534244989700 ) ) ;
#109 = VECTOR ( 'NONE', #14, 1000.000000000000000 ) ;
#110 = APPROVAL_STATUS ( 'not_yet_approved' ) ;
#111 =( BOUNDED_SURFACE ( )  B_SPLINE_SURFACE ( 3, 3, ( 
 ( #136, #226, #209, #16 ),
 ( #178, #137, #84, #102 ),
 ( #36, #225, #159, #63 ),
 ( #107, #1, #183, #94 ) ),
 .UNSPECIFIED., .F., .F., .F. ) 
 B_SPLINE_SURFACE_WITH_KNOTS ( ( 4, 4 ),
 ( 4, 4 ),
 ( 0.0000000000000000000, 1.000000000000000000 ),
 ( 0.0000000000000000000, 1.000000000000000000 ),
 .UNSPECIFIED. ) 
 GEOMETRIC_REPRESENTATION_ITEM ( )  RATIONAL_B_SPLINE_SURFACE ( (
 ( 1.000000000000000000, 0.9999399637500351300, 0.9999399637500351300, 1.000000000000000000),
 ( 0.9997569930220261400, 0.9996969713612889900, 0.9996969713612889900, 0.9997569930220261400),
 ( 0.9997569930220261400, 0.9996969713612889900, 0.9996969713612889900, 0.9997569930220261400),
 ( 1.000000000000000000, 0.9999399637500351300, 0.9999399637500351300, 1.000000000000000000) ) ) 
 REPRESENTATION_ITEM ( '' )  SURFACE ( )  );
#112 = COORDINATED_UNIVERSAL_TIME_OFFSET ( 2, 0, .AHEAD. ) ;
#113 = EDGE_CURVE ( 'NONE', #172, #204, #70, .T. ) ;
#114 = CARTESIAN_POINT ( 'NONE',  ( 25.55546896474361800, 8.570324769625669200, -0.2272777277612956800 ) ) ;
#115 = AXIS2_PLACEMENT_3D ( 'NONE', #58, #182, #33 ) ;
#116 = APPROVAL ( #40, 'UNSPECIFIED' ) ;
#117 = DIRECTION ( 'NONE',  ( 0.0000000000000000000, 0.0000000000000000000, 1.000000000000000000 ) ) ;
#118 = CARTESIAN_POINT ( 'NONE',  ( 8.519768346207735400, -8.570324769625921500, 0.1157115905883143200 ) ) ;
#119 = EDGE_LOOP ( 'NONE', ( #8, #78, #68 ) ) ;
#120 = ORIENTED_EDGE ( 'NONE', *, *, #167, .F. ) ;
#121 = CARTESIAN_POINT ( 'NONE',  ( 17.03876945000180500, -8.570324769625925000, 0.001374953462171931100 ) ) ;
#122 = CARTESIAN_POINT ( 'NONE',  ( 9.992007221626412800E-016, 4.884981308350691100E-015, -0.3388692534244989700 ) ) ;
#123 = ORIENTED_EDGE ( 'NONE', *, *, #227, .F. ) ;
#124 = DIRECTION ( 'NONE',  ( 0.0000000000000000000, 0.0000000000000000000, 1.000000000000000000 ) ) ;
#125 = DIRECTION ( 'NONE',  ( 1.000000000000000000, 0.0000000000000000000, 0.0000000000000000000 ) ) ;
#126 = AXIS2_PLACEMENT_3D ( 'NONE', #170, #174, #9 ) ;
#127 = CARTESIAN_POINT ( 'NONE',  ( 9.992007221626412800E-016, 4.884981308350691100E-015, 5.799999999999999800 ) ) ;
#128 = CIRCLE ( 'NONE', #181, 25.39999999999999900 ) ;
#129 = PERSON_AND_ORGANIZATION_ROLE ( 'creator' ) ;
#130 = EDGE_CURVE ( 'NONE', #204, #157, #143, .T. ) ;
#131 = CC_DESIGN_PERSON_AND_ORGANIZATION_ASSIGNMENT ( #165, #129, ( #24 ) ) ;
#132 = DATE_AND_TIME ( #187, #228 ) ;
#133 = LOCAL_TIME ( 13, 3, 43.00000000000000000, #142 ) ;
#134 = APPROVAL_DATE_TIME ( #188, #116 ) ;
#135 = CARTESIAN_POINT ( 'NONE',  ( 25.39999999999999900, 4.884981308350691100E-015, 5.799999999999999800 ) ) ;
#136 = CARTESIAN_POINT ( 'NONE',  ( -25.54304940482310100, 25.70472636270970000, -0.6898730464759417200 ) ) ;
#137 = CARTESIAN_POINT ( 'NONE',  ( -17.03876945000130000, 8.570324769625683500, 0.001374953462145991600 ) ) ;
#138 = AXIS2_PLACEMENT_3D ( 'NONE', #122, #106, #12 ) ;
#139 = EDGE_CURVE ( 'NONE', #211, #204, #27, .T. ) ;
#140 = DIRECTION ( 'NONE',  ( 0.0000000000000000000, 0.0000000000000000000, 1.000000000000000000 ) ) ;
#141 = PERSON ( 'UNSPECIFIED', 'UNSPECIFIED', 'UNSPECIFIED', ('UNSPECIFIED'), ('UNSPECIFIED'), ('UNSPECIFIED') ) ;
#142 = COORDINATED_UNIVERSAL_TIME_OFFSET ( 2, 0, .AHEAD. ) ;
#143 = CIRCLE ( 'NONE', #179, 25.39999999999999900 ) ;
#144 = PERSON_AND_ORGANIZATION_ROLE ( 'creator' ) ;
#145 = DATE_TIME_ROLE ( 'classification_date' ) ;
#146 = PERSON_AND_ORGANIZATION_ROLE ( 'classification_officer' ) ;
#147 = APPROVAL_PERSON_ORGANIZATION ( #169, #116, #213 ) ;
#148 = PERSON_AND_ORGANIZATION ( #141, #184 ) ;
#149 = ORIENTED_EDGE ( 'NONE', *, *, #167, .T. ) ;
#150 = PRODUCT_DEFINITION_SHAPE ( 'NONE', 'NONE',  #24 ) ;
#151 = CARTESIAN_POINT ( 'NONE',  ( 9.992007221626412800E-016, 4.884981308350691100E-015, -0.3388692534244989700 ) ) ;
#152 = DIRECTION ( 'NONE',  ( 0.0000000000000000000, 0.0000000000000000000, 1.000000000000000000 ) ) ;
#153 = FACE_OUTER_BOUND ( 'NONE', #221, .T. ) ;
#154 = DIRECTION ( 'NONE',  ( 1.000000000000000000, 0.0000000000000000000, 0.0000000000000000000 ) ) ;
#155 = DIRECTION ( 'NONE',  ( 0.0000000000000000000, 0.0000000000000000000, 1.000000000000000000 ) ) ;
#156 = CARTESIAN_POINT ( 'NONE',  ( -25.39999999999999900, 7.995584178184967200E-015, -0.3388692534244989700 ) ) ;
#157 = VERTEX_POINT ( 'NONE', #32 ) ;
#158 = CARTESIAN_POINT ( 'NONE',  ( 5.431789900027546300E-013, -25.40000000000041400, -0.3388692534244554500 ) ) ;
#159 = CARTESIAN_POINT ( 'NONE',  ( -8.519768346207055000, -8.570324769625917900, 0.1157115905882688300 ) ) ;
#160 = DIRECTION ( 'NONE',  ( 0.0000000000000000000, 0.0000000000000000000, 1.000000000000000000 ) ) ;
#161 = COORDINATED_UNIVERSAL_TIME_OFFSET ( 2, 0, .AHEAD. ) ;
#162 = DESIGN_CONTEXT ( 'detailed design', #233, 'design' ) ;
#163 = APPROVAL_ROLE ( '' ) ;
#164 = ADVANCED_FACE ( 'NONE', ( #153 ), #171, .T. ) ;
#165 = PERSON_AND_ORGANIZATION ( #141, #184 ) ;
#166 = ORIENTED_EDGE ( 'NONE', *, *, #139, .F. ) ;
#167 = EDGE_CURVE ( 'NONE', #180, #61, #128, .T. ) ;
#168 = PRODUCT_RELATED_PRODUCT_CATEGORY ( 'detail', '', ( #54 ) ) ;
#169 = PERSON_AND_ORGANIZATION ( #141, #184 ) ;
#170 = CARTESIAN_POINT ( 'NONE',  ( 0.0000000000000000000, 52.02000000000000300, 5.799999999999999800 ) ) ;
#171 = CYLINDRICAL_SURFACE ( 'NONE', #194, 25.39999999999999900 ) ;
#172 = VERTEX_POINT ( 'NONE', #56 ) ;
#173 = CC_DESIGN_PERSON_AND_ORGANIZATION_ASSIGNMENT ( #190, #21, ( #15 ) ) ;
#174 = DIRECTION ( 'NONE',  ( 0.0000000000000000000, 0.0000000000000000000, 1.000000000000000000 ) ) ;
#175 = CARTESIAN_POINT ( 'NONE',  ( 5.556531826748050500E-013, 25.70472636270969200, -0.3470504155933529200 ) ) ;
#176 = APPROVAL_DATE_TIME ( #7, #66 ) ;
#177 = CARTESIAN_POINT ( 'NONE',  ( 5.431008416306754800E-013, -25.70472636270993400, -0.3470504155933529200 ) ) ;
#178 = CARTESIAN_POINT ( 'NONE',  ( -25.55546896474328400, 8.570324769625683500, -0.2272777277613273200 ) ) ;
#179 = AXIS2_PLACEMENT_3D ( 'NONE', #103, #152, #55 ) ;
#180 = VERTEX_POINT ( 'NONE', #135 ) ;
#181 = AXIS2_PLACEMENT_3D ( 'NONE', #197, #31, #154 ) ;
#182 = DIRECTION ( 'NONE',  ( 1.000000000000000000, -2.441640666974649900E-016, -4.577765423489080400E-016 ) ) ;
#183 = CARTESIAN_POINT ( 'NONE',  ( -8.515627871476274500, -25.70472636270992700, -0.3470504155934023300 ) ) ;
#184 = ORGANIZATION ( 'UNSPECIFIED', 'UNSPECIFIED', '' ) ;
#185 = EDGE_CURVE ( 'NONE', #172, #61, #29, .T. ) ;
#186 = ADVANCED_FACE ( 'NONE', ( #207 ), #111, .F. ) ;
#187 = CALENDAR_DATE ( 2019, 17, 1 ) ;
#188 = DATE_AND_TIME ( #57, #234 ) ;
#189 = APPROVAL ( #62, 'UNSPECIFIED' ) ;
#190 = PERSON_AND_ORGANIZATION ( #141, #184 ) ;
#191 = ORIENTED_EDGE ( 'NONE', *, *, #105, .F. ) ;
#192 = CC_DESIGN_DATE_AND_TIME_ASSIGNMENT ( #132, #145, ( #220 ) ) ;
#193 = CARTESIAN_POINT ( 'NONE',  ( 17.03048887340811700, 25.70472636270968500, -0.4613314868945159200 ) ) ;
#194 = AXIS2_PLACEMENT_3D ( 'NONE', #206, #155, #86 ) ;
#195 = ORIENTED_EDGE ( 'NONE', *, *, #185, .T. ) ;
#196 = CARTESIAN_POINT ( 'NONE',  ( 5.516814190925304600E-013, 8.570324769625676400, 0.1157115905883199200 ) ) ;
#197 = CARTESIAN_POINT ( 'NONE',  ( 9.992007221626412800E-016, 4.884981308350691100E-015, 5.799999999999999800 ) ) ;
#198 = EDGE_CURVE ( 'NONE', #157, #211, #52, .T. ) ;
#199 = LOCAL_TIME ( 13, 3, 43.00000000000000000, #112 ) ;
#200 = CC_DESIGN_PERSON_AND_ORGANIZATION_ASSIGNMENT ( #3, #144, ( #15 ) ) ;
#201 = PERSON_AND_ORGANIZATION ( #141, #184 ) ;
#202 = DIRECTION ( 'NONE',  ( 0.0000000000000000000, 0.0000000000000000000, 1.000000000000000000 ) ) ;
#203 =( NAMED_UNIT ( * ) SI_UNIT ( $, .STERADIAN. ) SOLID_ANGLE_UNIT ( ) );
#204 = VERTEX_POINT ( 'NONE', #158 ) ;
#205 = AXIS2_PLACEMENT_3D ( 'NONE', #90, #202, #19 ) ;
#206 = CARTESIAN_POINT ( 'NONE',  ( 9.992007221626412800E-016, 4.884981308350691100E-015, -0.3388692534244989700 ) ) ;
#207 = FACE_OUTER_BOUND ( 'NONE', #119, .T. ) ;
#208 = CC_DESIGN_APPROVAL ( #66, ( #24 ) ) ;
#209 = CARTESIAN_POINT ( 'NONE',  ( -8.515627871476262100, 25.70472636270969200, -0.3470504155934023300 ) ) ;
#210 = DIRECTION ( 'NONE',  ( 1.000000000000000000, 0.0000000000000000000, 0.0000000000000000000 ) ) ;
#211 = VERTEX_POINT ( 'NONE', #60 ) ;
#212 = AXIS2_PLACEMENT_3D ( 'NONE', #127, #215, #125 ) ;
#213 = APPROVAL_ROLE ( '' ) ;
#214 = DIRECTION ( 'NONE',  ( 1.000000000000000000, 0.0000000000000000000, 0.0000000000000000000 ) ) ;
#215 = DIRECTION ( 'NONE',  ( -0.0000000000000000000, -0.0000000000000000000, -1.000000000000000000 ) ) ;
#216 = APPROVAL_DATE_TIME ( #46, #189 ) ;
#217 = CC_DESIGN_PERSON_AND_ORGANIZATION_ASSIGNMENT ( #81, #93, ( #54 ) ) ;
#218 = CARTESIAN_POINT ( 'NONE',  ( 8.515627871476962000, 25.70472636270968500, -0.3470504155933568600 ) ) ;
#219 = COORDINATED_UNIVERSAL_TIME_OFFSET ( 2, 0, .AHEAD. ) ;
#220 = SECURITY_CLASSIFICATION ( '', '', #232 ) ;
#221 = EDGE_LOOP ( 'NONE', ( #35, #74, #195, #22, #191 ) ) ;
#222 = CARTESIAN_POINT ( 'NONE',  ( 25.54304940482343500, 25.70472636270968500, -0.6898730464759100800 ) ) ;
#223 = LOCAL_TIME ( 13, 3, 43.00000000000000000, #161 ) ;
#224 = UNCERTAINTY_MEASURE_WITH_UNIT (LENGTH_MEASURE( 1.000000000000000100E-005 ), #39, 'distance_accuracy_value', 'NONE');
#225 = CARTESIAN_POINT ( 'NONE',  ( -17.03876945000130800, -8.570324769625916200, 0.001374953462144283700 ) ) ;
#226 = CARTESIAN_POINT ( 'NONE',  ( -17.03048887340759900, 25.70472636270969200, -0.4613314868945435600 ) ) ;
#227 = EDGE_CURVE ( 'NONE', #61, #180, #20, .T. ) ;
#228 = LOCAL_TIME ( 13, 3, 43.00000000000000000, #47 ) ;
#229 = ORIENTED_EDGE ( 'NONE', *, *, #113, .T. ) ;
#230 = CARTESIAN_POINT ( 'NONE',  ( 5.474962883951905900E-013, -8.570324769625919700, 0.1157115905883182200 ) ) ;
#231 = CARTESIAN_POINT ( 'NONE',  ( 8.515627871476949600, -25.70472636270993400, -0.3470504155933568600 ) ) ;
#232 = SECURITY_CLASSIFICATION_LEVEL ( 'unclassified' ) ;
#233 = APPLICATION_CONTEXT ( 'configuration controlled 3d designs of mechanical parts and assemblies' ) ;
#234 = LOCAL_TIME ( 13, 3, 43.00000000000000000, #219 ) ;
#235 =( GEOMETRIC_REPRESENTATION_CONTEXT ( 3 ) GLOBAL_UNCERTAINTY_ASSIGNED_CONTEXT ( ( #224 ) ) GLOBAL_UNIT_ASSIGNED_CONTEXT ( ( #39, #75, #203 ) ) REPRESENTATION_CONTEXT ( 'NONE', 'WORKASPACE' ) );
ENDSEC;
END-ISO-10303-21;
