ISO-10303-21;
HEADER;
FILE_DESCRIPTION (( 'STEP AP203' ),
    '1' );
FILE_NAME ('112-1527E UVFS pl-cv 50.8 F-500.STEP',
    '2019-01-17T10:55:48',
    ( '' ),
    ( '' ),
    'SwSTEP 2.0',
    'SolidWorks 2017',
    '' );
FILE_SCHEMA (( 'CONFIG_CONTROL_DESIGN' ));
ENDSEC;

DATA;
#1 = EDGE_CURVE ( 'NONE', #39, #235, #41, .T. ) ;
#2 = CARTESIAN_POINT ( 'NONE',  ( -9.714451465470119700E-014, -25.70361650412942800, -1.392045571987099000 ) ) ;
#3 = CARTESIAN_POINT ( 'NONE',  ( 25.39999999999999900, 4.884981308350691100E-015, -1.359259636046610300 ) ) ;
#4 = ORIENTED_EDGE ( 'NONE', *, *, #108, .T. ) ;
#5 = AXIS2_PLACEMENT_3D ( 'NONE', #230, #233, #154 ) ;
#6 = APPROVAL_PERSON_ORGANIZATION ( #205, #204, #59 ) ;
#7 = ORIENTED_EDGE ( 'NONE', *, *, #13, .T. ) ;
#8 = PERSON_AND_ORGANIZATION ( #224, #131 ) ;
#9 = COORDINATED_UNIVERSAL_TIME_OFFSET ( 2, 0, .AHEAD. ) ;
#10 = VERTEX_POINT ( 'NONE', #32 ) ;
#11 = PRODUCT_DEFINITION_FORMATION_WITH_SPECIFIED_SOURCE ( 'ANY', '', #76, .NOT_KNOWN. ) ;
#12 = CALENDAR_DATE ( 2019, 17, 1 ) ;
#13 = EDGE_CURVE ( 'NONE', #235, #39, #180, .T. ) ;
#14 = CARTESIAN_POINT ( 'NONE',  ( 8.554546457574188500, -8.601411542976599400, 0.4658316019192962900 ) ) ;
#15 = PERSON_AND_ORGANIZATION ( #224, #131 ) ;
#16 = CARTESIAN_POINT ( 'NONE',  ( 17.09672297633058900, 8.601411542976555000, 0.005956165303452236700 ) ) ;
#17 = APPROVAL_PERSON_ORGANIZATION ( #225, #96, #89 ) ;
#18 = CARTESIAN_POINT ( 'NONE',  ( -16.96352313317944300, 25.70361650412937800, -1.848338138592640300 ) ) ;
#19 = CARTESIAN_POINT ( 'NONE',  ( 9.992007221626412800E-016, 4.884981308350691100E-015, -1.359259636046610300 ) ) ;
#20 = APPLICATION_PROTOCOL_DEFINITION ( 'international standard', 'config_control_design', 1994, #217 ) ;
#21 =( NAMED_UNIT ( * ) PLANE_ANGLE_UNIT ( ) SI_UNIT ( $, .RADIAN. ) );
#22 = ORIENTED_EDGE ( 'NONE', *, *, #94, .F. ) ;
#23 = LOCAL_TIME ( 12, 55, 48.00000000000000000, #183 ) ;
#24 = LOCAL_TIME ( 12, 55, 48.00000000000000000, #9 ) ;
#25 = APPROVAL ( #162, 'UNSPECIFIED' ) ;
#26 = APPROVAL_STATUS ( 'not_yet_approved' ) ;
#27 = DESIGN_CONTEXT ( 'detailed design', #73, 'design' ) ;
#28 = APPLICATION_PROTOCOL_DEFINITION ( 'international standard', 'config_control_design', 1994, #73 ) ;
#29 = AXIS2_PLACEMENT_3D ( 'NONE', #66, #63, #99 ) ;
#30 = FACE_OUTER_BOUND ( 'NONE', #123, .T. ) ;
#31 = CC_DESIGN_APPROVAL ( #96, ( #188 ) ) ;
#32 = CARTESIAN_POINT ( 'NONE',  ( -4.217744751478466600E-014, -25.39999999999987100, -1.359259636046594100 ) ) ;
#33 = FACE_OUTER_BOUND ( 'NONE', #74, .T. ) ;
#34 = DIRECTION ( 'NONE',  ( 0.0000000000000000000, 0.0000000000000000000, 1.000000000000000000 ) ) ;
#35 = AXIS2_PLACEMENT_3D ( 'NONE', #173, #209, #50 ) ;
#36 = CIRCLE ( 'NONE', #72, 25.39999999999999900 ) ;
#37 = CARTESIAN_POINT ( 'NONE',  ( 0.0000000000000000000, 0.0000000000000000000, 0.0000000000000000000 ) ) ;
#38 = CC_DESIGN_PERSON_AND_ORGANIZATION_ASSIGNMENT ( #15, #92, ( #11 ) ) ;
#39 = VERTEX_POINT ( 'NONE', #137 ) ;
#40 = CARTESIAN_POINT ( 'NONE',  ( -25.60182545268367000, -8.601411542976608300, -0.9124647412157678200 ) ) ;
#41 = CIRCLE ( 'NONE', #29, 25.39999999999999900 ) ;
#42 =( LENGTH_UNIT ( ) NAMED_UNIT ( * ) SI_UNIT ( .MILLI., .METRE. ) );
#43 = COORDINATED_UNIVERSAL_TIME_OFFSET ( 2, 0, .AHEAD. ) ;
#44 = CC_DESIGN_PERSON_AND_ORGANIZATION_ASSIGNMENT ( #95, #71, ( #188 ) ) ;
#45 = LOCAL_TIME ( 12, 55, 48.00000000000000000, #147 ) ;
#46 = VECTOR ( 'NONE', #34, 1000.000000000000000 ) ;
#47 = CARTESIAN_POINT ( 'NONE',  ( 9.992007221626412800E-016, 4.884981308350691100E-015, 4.700000000000000200 ) ) ;
#48 = CALENDAR_DATE ( 2019, 17, 1 ) ;
#49 = CARTESIAN_POINT ( 'NONE',  ( 25.60182545268349600, -8.601411542976595800, -0.9124647412157713700 ) ) ;
#50 = DIRECTION ( 'NONE',  ( 1.000000000000000000, 0.0000000000000000000, 0.0000000000000000000 ) ) ;
#51 = CARTESIAN_POINT ( 'NONE',  ( -5.465759762504170900E-014, 25.70361650412938200, -1.392045571987077200 ) ) ;
#52 = DIRECTION ( 'NONE',  ( 0.0000000000000000000, 0.0000000000000000000, 1.000000000000000000 ) ) ;
#53 = CARTESIAN_POINT ( 'NONE',  ( -17.09672297633076400, 8.601411542976547900, 0.005956165303459284900 ) ) ;
#54 = ORIENTED_EDGE ( 'NONE', *, *, #232, .T. ) ;
#55 = DIRECTION ( 'NONE',  ( 1.000000000000000000, 0.0000000000000000000, 0.0000000000000000000 ) ) ;
#56 = CARTESIAN_POINT ( 'NONE',  ( -8.487898349164492400, -25.70361650412943200, -1.392045571987100800 ) ) ;
#57 = AXIS2_PLACEMENT_3D ( 'NONE', #122, #195, #101 ) ;
#58 = CLOSED_SHELL ( 'NONE', ( #184, #179, #126, #110, #106 ) ) ;
#59 = APPROVAL_ROLE ( '' ) ;
#60 = CALENDAR_DATE ( 2019, 17, 1 ) ;
#61 = CIRCLE ( 'NONE', #35, 25.39999999999999900 ) ;
#62 = DIRECTION ( 'NONE',  ( -2.441897141834630300E-016, 1.000000000000000000, -4.664802624475447800E-016 ) ) ;
#63 = DIRECTION ( 'NONE',  ( -0.0000000000000000000, -0.0000000000000000000, -1.000000000000000000 ) ) ;
#64 = ORIENTED_EDGE ( 'NONE', *, *, #144, .T. ) ;
#65 = COORDINATED_UNIVERSAL_TIME_OFFSET ( 2, 0, .AHEAD. ) ;
#66 = CARTESIAN_POINT ( 'NONE',  ( 9.992007221626412800E-016, 4.884981308350691100E-015, 4.700000000000000200 ) ) ;
#67 = CARTESIAN_POINT ( 'NONE',  ( -1.006139616066548100E-013, -8.601411542976601200, 0.4658316019193025100 ) ) ;
#68 = DIRECTION ( 'NONE',  ( 0.0000000000000000000, 0.0000000000000000000, 1.000000000000000000 ) ) ;
#69 = CARTESIAN_POINT ( 'NONE',  ( -8.554546457574344800, -8.601411542976602900, 0.4658316019193008400 ) ) ;
#70 = DIRECTION ( 'NONE',  ( 1.000000000000000000, 0.0000000000000000000, 0.0000000000000000000 ) ) ;
#71 = PERSON_AND_ORGANIZATION_ROLE ( 'creator' ) ;
#72 = AXIS2_PLACEMENT_3D ( 'NONE', #19, #191, #176 ) ;
#73 = APPLICATION_CONTEXT ( 'configuration controlled 3d designs of mechanical parts and assemblies' ) ;
#74 = EDGE_LOOP ( 'NONE', ( #226, #127 ) ) ;
#75 = LINE ( 'NONE', #160, #218 ) ;
#76 = PRODUCT ( '112-1527E UVFS pl-cv 50.8 F-500', '112-1527E UVFS pl-cv 50.8 F-500', '', ( #182 ) ) ;
#77 = FACE_OUTER_BOUND ( 'NONE', #78, .T. ) ;
#78 = EDGE_LOOP ( 'NONE', ( #22, #175, #128 ) ) ;
#79 = CARTESIAN_POINT ( 'NONE',  ( 25.40236271708169400, 25.70361650412938900, -2.759603666805447100 ) ) ;
#80 = DIRECTION ( 'NONE',  ( 1.000000000000000000, 0.0000000000000000000, 0.0000000000000000000 ) ) ;
#81 = CARTESIAN_POINT ( 'NONE',  ( 0.0000000000000000000, 52.02000000000000300, 4.700000000000000200 ) ) ;
#82 = CARTESIAN_POINT ( 'NONE',  ( -25.39999999999999900, 7.995584178184967200E-015, -1.359259636046610300 ) ) ;
#83 = LOCAL_TIME ( 12, 55, 48.00000000000000000, #43 ) ;
#84 = CARTESIAN_POINT ( 'NONE',  ( -5.458228499530451500E-014, 25.39999999999983200, -1.359259636046594100 ) ) ;
#85 = CARTESIAN_POINT ( 'NONE',  ( -8.554546457574348400, 8.601411542976551400, 0.4658316019193311000 ) ) ;
#86 = DIRECTION ( 'NONE',  ( 0.0000000000000000000, 0.0000000000000000000, 1.000000000000000000 ) ) ;
#87 = CARTESIAN_POINT ( 'NONE',  ( -25.39999999999999900, 7.995584178184967200E-015, -1.359259636046610300 ) ) ;
#88 = CC_DESIGN_APPROVAL ( #25, ( #227 ) ) ;
#89 = APPROVAL_ROLE ( '' ) ;
#90 = ORIENTED_EDGE ( 'NONE', *, *, #108, .F. ) ;
#91 = AXIS2_PLACEMENT_3D ( 'NONE', #216, #86, #55 ) ;
#92 = PERSON_AND_ORGANIZATION_ROLE ( 'design_supplier' ) ;
#93 = LINE ( 'NONE', #82, #46 ) ;
#94 = EDGE_CURVE ( 'NONE', #192, #10, #185, .T. ) ;
#95 = PERSON_AND_ORGANIZATION ( #224, #131 ) ;
#96 = APPROVAL ( #200, 'UNSPECIFIED' ) ;
#97 = CIRCLE ( 'NONE', #57, 25.39999999999999900 ) ;
#98 = CARTESIAN_POINT ( 'NONE',  ( 8.487898349164343200, -25.70361650412942500, -1.392045571987105200 ) ) ;
#99 = DIRECTION ( 'NONE',  ( 1.000000000000000000, 0.0000000000000000000, 0.0000000000000000000 ) ) ;
#100 =( NAMED_UNIT ( * ) SI_UNIT ( $, .STERADIAN. ) SOLID_ANGLE_UNIT ( ) );
#101 = DIRECTION ( 'NONE',  ( 1.000000000000000000, 0.0000000000000000000, 0.0000000000000000000 ) ) ;
#102 = EDGE_CURVE ( 'NONE', #186, #235, #93, .T. ) ;
#103 = DIRECTION ( 'NONE',  ( 0.0000000000000000000, 0.0000000000000000000, 1.000000000000000000 ) ) ;
#104 = APPROVAL_DATE_TIME ( #152, #204 ) ;
#105 = APPROVAL_ROLE ( '' ) ;
#106 = ADVANCED_FACE ( 'NONE', ( #33 ), #118, .T. ) ;
#107 = DATE_TIME_ROLE ( 'creation_date' ) ;
#108 = EDGE_CURVE ( 'NONE', #186, #10, #61, .T. ) ;
#109 = SECURITY_CLASSIFICATION_LEVEL ( 'unclassified' ) ;
#110 = ADVANCED_FACE ( 'NONE', ( #172 ), #120, .T. ) ;
#111 = APPROVAL_DATE_TIME ( #170, #96 ) ;
#112 = EDGE_LOOP ( 'NONE', ( #142, #64, #148, #7, #177 ) ) ;
#113 = CC_DESIGN_DATE_AND_TIME_ASSIGNMENT ( #143, #107, ( #188 ) ) ;
#114 = ORIENTED_EDGE ( 'NONE', *, *, #144, .F. ) ;
#115 = PERSON_AND_ORGANIZATION ( #224, #131 ) ;
#116 = CARTESIAN_POINT ( 'NONE',  ( -4.621421489620337800E-014, -8.601411542976601200, 0.4658316019192966200 ) ) ;
#117 = CALENDAR_DATE ( 2019, 17, 1 ) ;
#118 = PLANE ( 'NONE',  #206 ) ;
#119 = ORIENTED_EDGE ( 'NONE', *, *, #102, .F. ) ;
#120 = CYLINDRICAL_SURFACE ( 'NONE', #5, 25.39999999999999900 ) ;
#121 = AXIS2_PLACEMENT_3D ( 'NONE', #178, #68, #70 ) ;
#122 = CARTESIAN_POINT ( 'NONE',  ( 9.992007221626412800E-016, 4.884981308350691100E-015, -1.359259636046610300 ) ) ;
#123 = EDGE_LOOP ( 'NONE', ( #114, #166, #90 ) ) ;
#124 = CARTESIAN_POINT ( 'NONE',  ( -25.39999999999999900, 7.995584178184967200E-015, 4.700000000000000200 ) ) ;
#125 = CC_DESIGN_PERSON_AND_ORGANIZATION_ASSIGNMENT ( #136, #201, ( #11 ) ) ;
#126 = ADVANCED_FACE ( 'NONE', ( #77 ), #222, .F. ) ;
#127 = ORIENTED_EDGE ( 'NONE', *, *, #13, .F. ) ;
#128 = ORIENTED_EDGE ( 'NONE', *, *, #141, .F. ) ;
#129 = EDGE_CURVE ( 'NONE', #145, #192, #97, .T. ) ;
#130 = APPROVAL_PERSON_ORGANIZATION ( #8, #25, #105 ) ;
#131 = ORGANIZATION ( 'UNSPECIFIED', 'UNSPECIFIED', '' ) ;
#132 = CIRCLE ( 'NONE', #91, 25.39999999999999900 ) ;
#133 = ADVANCED_BREP_SHAPE_REPRESENTATION ( '112-1527E UVFS pl-cv 50.8 F-500', ( #174, #234 ), #194 ) ;
#134 = CARTESIAN_POINT ( 'NONE',  ( 17.09672297633058900, -8.601411542976597600, 0.005956165303421770600 ) ) ;
#135 = PRODUCT_RELATED_PRODUCT_CATEGORY ( 'detail', '', ( #76 ) ) ;
#136 = PERSON_AND_ORGANIZATION ( #224, #131 ) ;
#137 = CARTESIAN_POINT ( 'NONE',  ( 25.39999999999999900, 4.884981308350691100E-015, 4.700000000000000200 ) ) ;
#138 = CARTESIAN_POINT ( 'NONE',  ( 16.96352313317926200, 25.70361650412938900, -1.848338138592647000 ) ) ;
#139 = DIRECTION ( 'NONE',  ( 1.000000000000000000, 0.0000000000000000000, 0.0000000000000000000 ) ) ;
#140 = CARTESIAN_POINT ( 'NONE',  ( -25.40236271708188200, 25.70361650412937500, -2.759603666805443600 ) ) ;
#141 = EDGE_CURVE ( 'NONE', #10, #145, #132, .T. ) ;
#142 = ORIENTED_EDGE ( 'NONE', *, *, #129, .T. ) ;
#143 = DATE_AND_TIME ( #12, #24 ) ;
#144 = EDGE_CURVE ( 'NONE', #192, #186, #36, .T. ) ;
#145 = VERTEX_POINT ( 'NONE', #3 ) ;
#146 = PERSON_AND_ORGANIZATION_ROLE ( 'classification_officer' ) ;
#147 = COORDINATED_UNIVERSAL_TIME_OFFSET ( 2, 0, .AHEAD. ) ;
#148 = ORIENTED_EDGE ( 'NONE', *, *, #102, .T. ) ;
#149 = CC_DESIGN_PERSON_AND_ORGANIZATION_ASSIGNMENT ( #169, #146, ( #227 ) ) ;
#150 = UNCERTAINTY_MEASURE_WITH_UNIT (LENGTH_MEASURE( 1.000000000000000100E-005 ), #42, 'distance_accuracy_value', 'NONE');
#151 = LOCAL_TIME ( 12, 55, 48.00000000000000000, #65 ) ;
#152 = DATE_AND_TIME ( #48, #45 ) ;
#153 = AXIS2_PLACEMENT_3D ( 'NONE', #47, #208, #80 ) ;
#154 = DIRECTION ( 'NONE',  ( 1.000000000000000000, 0.0000000000000000000, 0.0000000000000000000 ) ) ;
#155 = CC_DESIGN_APPROVAL ( #204, ( #11 ) ) ;
#156 = CARTESIAN_POINT ( 'NONE',  ( -25.60182545268367700, 8.601411542976546100, -0.9124647412157370600 ) ) ;
#157 = CARTESIAN_POINT ( 'NONE',  ( -1.110223024625156500E-013, 25.70361650412938200, -1.392045571987071700 ) ) ;
#158 = CARTESIAN_POINT ( 'NONE',  ( -17.09672297633075600, -8.601411542976606500, 0.005956165303428384200 ) ) ;
#159 = CARTESIAN_POINT ( 'NONE',  ( -1.040834085586084400E-013, 8.601411542976553200, 0.4658316019193328700 ) ) ;
#160 = CARTESIAN_POINT ( 'NONE',  ( 25.39999999999999900, 4.884981308350691100E-015, -1.359259636046610300 ) ) ;
#161 = EDGE_LOOP ( 'NONE', ( #119, #4, #210, #54, #223 ) ) ;
#162 = APPROVAL_STATUS ( 'not_yet_approved' ) ;
#163 = SHAPE_DEFINITION_REPRESENTATION ( #215, #133 ) ;
#164 = AXIS2_PLACEMENT_3D ( 'NONE', #171, #190, #62 ) ;
#165 = CYLINDRICAL_SURFACE ( 'NONE', #121, 25.39999999999999900 ) ;
#166 = ORIENTED_EDGE ( 'NONE', *, *, #94, .T. ) ;
#167 = DIRECTION ( 'NONE',  ( 0.0000000000000000000, 0.0000000000000000000, 1.000000000000000000 ) ) ;
#168 = CC_DESIGN_PERSON_AND_ORGANIZATION_ASSIGNMENT ( #115, #198, ( #76 ) ) ;
#169 = PERSON_AND_ORGANIZATION ( #224, #131 ) ;
#170 = DATE_AND_TIME ( #60, #151 ) ;
#171 = CARTESIAN_POINT ( 'NONE',  ( -5.684341886080800200E-014, -4.263256414560599900E-014, -238.0000000000000300 ) ) ;
#172 = FACE_OUTER_BOUND ( 'NONE', #161, .T. ) ;
#173 = CARTESIAN_POINT ( 'NONE',  ( 9.992007221626412800E-016, 4.884981308350691100E-015, -1.359259636046610300 ) ) ;
#174 = MANIFOLD_SOLID_BREP ( 'Imported1', #58 ) ;
#175 = ORIENTED_EDGE ( 'NONE', *, *, #129, .F. ) ;
#176 = DIRECTION ( 'NONE',  ( 1.000000000000000000, 0.0000000000000000000, 0.0000000000000000000 ) ) ;
#177 = ORIENTED_EDGE ( 'NONE', *, *, #232, .F. ) ;
#178 = CARTESIAN_POINT ( 'NONE',  ( 9.992007221626412800E-016, 4.884981308350691100E-015, -1.359259636046610300 ) ) ;
#179 = ADVANCED_FACE ( 'NONE', ( #221 ), #165, .T. ) ;
#180 = CIRCLE ( 'NONE', #153, 25.39999999999999900 ) ;
#181 =( BOUNDED_SURFACE ( )  B_SPLINE_SURFACE ( 3, 3, ( 
 ( #140, #18, #220, #157 ),
 ( #156, #53, #85, #159 ),
 ( #40, #158, #69, #67 ),
 ( #213, #214, #56, #2 ) ),
 .UNSPECIFIED., .F., .F., .F. ) 
 B_SPLINE_SURFACE_WITH_KNOTS ( ( 4, 4 ),
 ( 4, 4 ),
 ( 0.0000000000000000000, 1.000000000000000000 ),
 ( 0.0000000000000000000, 1.000000000000000000 ),
 .UNSPECIFIED. ) 
 GEOMETRIC_REPRESENTATION_ITEM ( )  RATIONAL_B_SPLINE_SURFACE ( (
 ( 1.000000000000000000, 0.9990359949625086100, 0.9990359949625086100, 1.000000000000000000),
 ( 0.9961007126835095300, 0.9951404665786338600, 0.9951404665786338600, 0.9961007126835095300),
 ( 0.9961007126835095300, 0.9951404665786338600, 0.9951404665786338600, 0.9961007126835095300),
 ( 1.000000000000000000, 0.9990359949625086100, 0.9990359949625086100, 1.000000000000000000) ) ) 
 REPRESENTATION_ITEM ( '' )  SURFACE ( )  );
#182 = MECHANICAL_CONTEXT ( 'NONE', #217, 'mechanical' ) ;
#183 = COORDINATED_UNIVERSAL_TIME_OFFSET ( 2, 0, .AHEAD. ) ;
#184 = ADVANCED_FACE ( 'NONE', ( #30 ), #181, .F. ) ;
#185 = CIRCLE ( 'NONE', #164, 238.0000000000000000 ) ;
#186 = VERTEX_POINT ( 'NONE', #87 ) ;
#187 = DIRECTION ( 'NONE',  ( 1.000000000000000000, 0.0000000000000000000, -0.0000000000000000000 ) ) ;
#188 = PRODUCT_DEFINITION ( 'UNKNOWN', '', #11, #27 ) ;
#189 = CARTESIAN_POINT ( 'NONE',  ( -4.210448008979230700E-014, -25.70361650412942800, -1.392045571987105000 ) ) ;
#190 = DIRECTION ( 'NONE',  ( 1.000000000000000000, 2.441897141834629800E-016, -3.576540790375520200E-017 ) ) ;
#191 = DIRECTION ( 'NONE',  ( 0.0000000000000000000, 0.0000000000000000000, 1.000000000000000000 ) ) ;
#192 = VERTEX_POINT ( 'NONE', #84 ) ;
#193 = CARTESIAN_POINT ( 'NONE',  ( 25.40236271708170100, -25.70361650412942100, -2.759603666805474600 ) ) ;
#194 =( GEOMETRIC_REPRESENTATION_CONTEXT ( 3 ) GLOBAL_UNCERTAINTY_ASSIGNED_CONTEXT ( ( #150 ) ) GLOBAL_UNIT_ASSIGNED_CONTEXT ( ( #42, #21, #100 ) ) REPRESENTATION_CONTEXT ( 'NONE', 'WORKASPACE' ) );
#195 = DIRECTION ( 'NONE',  ( 0.0000000000000000000, 0.0000000000000000000, 1.000000000000000000 ) ) ;
#196 = CARTESIAN_POINT ( 'NONE',  ( 16.96352313317926900, -25.70361650412942100, -1.848338138592674900 ) ) ;
#197 = APPROVAL_DATE_TIME ( #203, #25 ) ;
#198 = PERSON_AND_ORGANIZATION_ROLE ( 'design_owner' ) ;
#199 = DATE_TIME_ROLE ( 'classification_date' ) ;
#200 = APPROVAL_STATUS ( 'not_yet_approved' ) ;
#201 = PERSON_AND_ORGANIZATION_ROLE ( 'creator' ) ;
#202 = CC_DESIGN_DATE_AND_TIME_ASSIGNMENT ( #231, #199, ( #227 ) ) ;
#203 = DATE_AND_TIME ( #212, #23 ) ;
#204 = APPROVAL ( #26, 'UNSPECIFIED' ) ;
#205 = PERSON_AND_ORGANIZATION ( #224, #131 ) ;
#206 = AXIS2_PLACEMENT_3D ( 'NONE', #81, #167, #187 ) ;
#207 = CARTESIAN_POINT ( 'NONE',  ( -5.041496734871095700E-014, 8.601411542976553200, 0.4658316019193271500 ) ) ;
#208 = DIRECTION ( 'NONE',  ( -0.0000000000000000000, -0.0000000000000000000, -1.000000000000000000 ) ) ;
#209 = DIRECTION ( 'NONE',  ( 0.0000000000000000000, 0.0000000000000000000, 1.000000000000000000 ) ) ;
#210 = ORIENTED_EDGE ( 'NONE', *, *, #141, .T. ) ;
#211 = CARTESIAN_POINT ( 'NONE',  ( 8.487898349164330700, 25.70361650412938600, -1.392045571987077500 ) ) ;
#212 = CALENDAR_DATE ( 2019, 17, 1 ) ;
#213 = CARTESIAN_POINT ( 'NONE',  ( -25.40236271708186800, -25.70361650412943500, -2.759603666805471500 ) ) ;
#214 = CARTESIAN_POINT ( 'NONE',  ( -16.96352313317942900, -25.70361650412943200, -1.848338138592668300 ) ) ;
#215 = PRODUCT_DEFINITION_SHAPE ( 'NONE', 'NONE',  #188 ) ;
#216 = CARTESIAN_POINT ( 'NONE',  ( 9.992007221626412800E-016, 4.884981308350691100E-015, -1.359259636046610300 ) ) ;
#217 = APPLICATION_CONTEXT ( 'configuration controlled 3d designs of mechanical parts and assemblies' ) ;
#218 = VECTOR ( 'NONE', #103, 1000.000000000000000 ) ;
#219 = CC_DESIGN_SECURITY_CLASSIFICATION ( #227, ( #11 ) ) ;
#220 = CARTESIAN_POINT ( 'NONE',  ( -8.487898349164508400, 25.70361650412937800, -1.392045571987073500 ) ) ;
#221 = FACE_OUTER_BOUND ( 'NONE', #112, .T. ) ;
#222 =( BOUNDED_SURFACE ( )  B_SPLINE_SURFACE ( 3, 3, ( 
 ( #51, #211, #138, #79 ),
 ( #207, #229, #16, #228 ),
 ( #116, #14, #134, #49 ),
 ( #189, #98, #196, #193 ) ),
 .UNSPECIFIED., .F., .F., .F. ) 
 B_SPLINE_SURFACE_WITH_KNOTS ( ( 4, 4 ),
 ( 4, 4 ),
 ( 0.0000000000000000000, 1.000000000000000000 ),
 ( 0.0000000000000000000, 1.000000000000000000 ),
 .UNSPECIFIED. ) 
 GEOMETRIC_REPRESENTATION_ITEM ( )  RATIONAL_B_SPLINE_SURFACE ( (
 ( 1.000000000000000000, 0.9990359949625086100, 0.9990359949625086100, 1.000000000000000000),
 ( 0.9961007126835095300, 0.9951404665786338600, 0.9951404665786338600, 0.9961007126835095300),
 ( 0.9961007126835095300, 0.9951404665786338600, 0.9951404665786338600, 0.9961007126835095300),
 ( 1.000000000000000000, 0.9990359949625086100, 0.9990359949625086100, 1.000000000000000000) ) ) 
 REPRESENTATION_ITEM ( '' )  SURFACE ( )  );
#223 = ORIENTED_EDGE ( 'NONE', *, *, #1, .T. ) ;
#224 = PERSON ( 'UNSPECIFIED', 'UNSPECIFIED', 'UNSPECIFIED', ('UNSPECIFIED'), ('UNSPECIFIED'), ('UNSPECIFIED') ) ;
#225 = PERSON_AND_ORGANIZATION ( #224, #131 ) ;
#226 = ORIENTED_EDGE ( 'NONE', *, *, #1, .F. ) ;
#227 = SECURITY_CLASSIFICATION ( '', '', #109 ) ;
#228 = CARTESIAN_POINT ( 'NONE',  ( 25.60182545268349600, 8.601411542976558500, -0.9124647412157409500 ) ) ;
#229 = CARTESIAN_POINT ( 'NONE',  ( 8.554546457574185000, 8.601411542976553200, 0.4658316019193268800 ) ) ;
#230 = CARTESIAN_POINT ( 'NONE',  ( 9.992007221626412800E-016, 4.884981308350691100E-015, -1.359259636046610300 ) ) ;
#231 = DATE_AND_TIME ( #117, #83 ) ;
#232 = EDGE_CURVE ( 'NONE', #145, #39, #75, .T. ) ;
#233 = DIRECTION ( 'NONE',  ( 0.0000000000000000000, 0.0000000000000000000, 1.000000000000000000 ) ) ;
#234 = AXIS2_PLACEMENT_3D ( 'NONE', #37, #52, #139 ) ;
#235 = VERTEX_POINT ( 'NONE', #124 ) ;
ENDSEC;
END-ISO-10303-21;
