ISO-10303-21;
HEADER;
FILE_DESCRIPTION (( 'STEP AP203' ),
    '1' );
FILE_NAME ('112-1519E UVFS pl-cv 50.8 F-300.STEP',
    '2019-10-01T09:25:10',
    ( '' ),
    ( '' ),
    'SwSTEP 2.0',
    'SolidWorks 2019',
    '' );
FILE_SCHEMA (( 'CONFIG_CONTROL_DESIGN' ));
ENDSEC;

DATA;
#1 = FACE_OUTER_BOUND ( 'NONE', #20, .T. ) ;
#2 = LINE ( 'NONE', #165, #53 ) ;
#3 = CALENDAR_DATE ( 2019, 1, 10 ) ;
#4 = APPROVAL_ROLE ( '' ) ;
#5 = APPROVAL_STATUS ( 'not_yet_approved' ) ;
#6 = DIRECTION ( 'NONE',  ( 0.0000000000000000000, 0.0000000000000000000, 1.000000000000000000 ) ) ;
#7 = EDGE_CURVE ( 'NONE', #139, #153, #172, .T. ) ;
#8 = DATE_AND_TIME ( #3, #144 ) ;
#9 = ORIENTED_EDGE ( 'NONE', *, *, #63, .F. ) ;
#10 = APPROVAL_ROLE ( '' ) ;
#11 = VECTOR ( 'NONE', #178, 1000.000000000000000 ) ;
#12 =( BOUNDED_CURVE ( )  B_SPLINE_CURVE ( 2, ( #46, #89, #145, #126, #78 ),
 .UNSPECIFIED., .F., .F. ) 
 B_SPLINE_CURVE_WITH_KNOTS ( ( 3, 2, 3 ),
 ( 3.141592653589778461, 4.712388980384684345, 6.283185307179590673 ),
 .UNSPECIFIED. ) 
 CURVE ( )  GEOMETRIC_REPRESENTATION_ITEM ( )  RATIONAL_B_SPLINE_CURVE ( ( 1.000000000000002220, 0.7071067811865459074, 1.000000000000000000, 0.7071067811865480168, 1.000000000000000000 ) ) 
 REPRESENTATION_ITEM ( '' )  );
#13 = ORGANIZATION ( 'UNSPECIFIED', 'UNSPECIFIED', '' ) ;
#14 = CARTESIAN_POINT ( 'NONE',  ( 25.39999999999997371, 25.39999999999997371, 3.500000000000003109 ) ) ;
#15 = CARTESIAN_POINT ( 'NONE',  ( -25.39999999999999858, 3.110602869834280021E-15, 3.500000000000000000 ) ) ;
#16 = CARTESIAN_POINT ( 'NONE',  ( 25.39999999999999858, 0.0000000000000000000, -2.277119300805679813 ) ) ;
#17 = DATE_AND_TIME ( #67, #134 ) ;
#18 = APPLICATION_PROTOCOL_DEFINITION ( 'international standard', 'config_control_design', 1994, #23 ) ;
#19 = CARTESIAN_POINT ( 'NONE',  ( -4.665904304751420031E-15, -25.39999999999999858, 3.500000000000000000 ) ) ;
#20 = EDGE_LOOP ( 'NONE', ( #125, #9 ) ) ;
#21 = PERSON_AND_ORGANIZATION ( #123, #13 ) ;
#22 = ADVANCED_FACE ( 'NONE', ( #137 ), #70, .T. ) ;
#23 = APPLICATION_CONTEXT ( 'configuration controlled 3d designs of mechanical parts and assemblies' ) ;
#24 = SPHERICAL_SURFACE ( 'NONE', #140, 142.8000000000000114 ) ;
#25 = APPROVAL ( #5, 'UNSPECIFIED' ) ;
#26 = CARTESIAN_POINT ( 'NONE',  ( -25.39999999999999858, 3.110602869834280021E-15, -2.277119300805679813 ) ) ;
#27 = CARTESIAN_POINT ( 'NONE',  ( -25.39999999999999858, 3.110602869834280021E-15, 3.500000000000000000 ) ) ;
#28 = COORDINATED_UNIVERSAL_TIME_OFFSET ( 2, 0, .AHEAD. ) ;
#29 = APPROVAL_DATE_TIME ( #17, #110 ) ;
#30 = MANIFOLD_SOLID_BREP ( '112-1519E.STP', #95 ) ;
#31 = CC_DESIGN_PERSON_AND_ORGANIZATION_ASSIGNMENT ( #94, #157, ( #47 ) ) ;
#32 = DIRECTION ( 'NONE',  ( 1.000000000000000000, -1.398706172756100243E-16, 0.0000000000000000000 ) ) ;
#33 = APPROVAL_PERSON_ORGANIZATION ( #93, #110, #4 ) ;
#34 = PERSON_AND_ORGANIZATION ( #123, #13 ) ;
#35 = ORIENTED_EDGE ( 'NONE', *, *, #7, .T. ) ;
#36 = EDGE_CURVE ( 'NONE', #107, #122, #149, .T. ) ;
#37 = CARTESIAN_POINT ( 'NONE',  ( 25.39999999999999858, 0.0000000000000000000, -2.277119300805679813 ) ) ;
#38 = CC_DESIGN_APPROVAL ( #25, ( #64 ) ) ;
#39 = DIRECTION ( 'NONE',  ( 1.000000000000000000, -1.398706172756100243E-16, 0.0000000000000000000 ) ) ;
#40 = DATE_TIME_ROLE ( 'classification_date' ) ;
#41 = CC_DESIGN_DATE_AND_TIME_ASSIGNMENT ( #120, #40, ( #161 ) ) ;
#42 = CARTESIAN_POINT ( 'NONE',  ( 25.39999999999999858, 0.0000000000000000000, 3.500000000000000000 ) ) ;
#43 = LOCAL_TIME ( 12, 25, 10.00000000000000000, #86 ) ;
#44 = DIRECTION ( 'NONE',  ( 0.0000000000000000000, 0.0000000000000000000, 1.000000000000000000 ) ) ;
#45 = DIRECTION ( 'NONE',  ( -2.056625150099659893E-16, 0.0000000000000000000, 1.000000000000000000 ) ) ;
#46 = CARTESIAN_POINT ( 'NONE',  ( -25.39999999999999858, 3.110602869834280021E-15, -2.277119300805679813 ) ) ;
#47 = PRODUCT ( '112-1519E UVFS pl-cv 50.8 F-300', '112-1519E UVFS pl-cv 50.8 F-300', '', ( #82 ) ) ;
#48 = CC_DESIGN_PERSON_AND_ORGANIZATION_ASSIGNMENT ( #54, #96, ( #64 ) ) ;
#49 = CALENDAR_DATE ( 2019, 1, 10 ) ;
#50 = ORIENTED_EDGE ( 'NONE', *, *, #92, .F. ) ;
#51 = PERSON_AND_ORGANIZATION ( #123, #13 ) ;
#52 = ORIENTED_EDGE ( 'NONE', *, *, #73, .T. ) ;
#53 = VECTOR ( 'NONE', #44, 1000.000000000000000 ) ;
#54 = PERSON_AND_ORGANIZATION ( #123, #13 ) ;
#55 = ORIENTED_EDGE ( 'NONE', *, *, #36, .T. ) ;
#56 = ORIENTED_EDGE ( 'NONE', *, *, #142, .F. ) ;
#57 = AXIS2_PLACEMENT_3D ( 'NONE', #114, #102, #169 ) ;
#58 = CARTESIAN_POINT ( 'NONE',  ( 0.0000000000000000000, 2.842170943040399481E-14, -142.8000000000000114 ) ) ;
#59 = PRODUCT_RELATED_PRODUCT_CATEGORY ( 'detail', '', ( #47 ) ) ;
#60 = CYLINDRICAL_SURFACE ( 'NONE', #71, 25.39999999999999858 ) ;
#61 = CARTESIAN_POINT ( 'NONE',  ( -25.39999999999971081, 25.39999999999997371, 3.500000000000002665 ) ) ;
#62 = PLANE ( 'NONE',  #104 ) ;
#63 = EDGE_CURVE ( 'NONE', #122, #107, #12, .T. ) ;
#64 = PRODUCT_DEFINITION_FORMATION_WITH_SPECIFIED_SOURCE ( 'ANY', '', #47, .NOT_KNOWN. ) ;
#65 = ADVANCED_FACE ( 'NONE', ( #1 ), #24, .F. ) ;
#66 = DESIGN_CONTEXT ( 'detailed design', #129, 'design' ) ;
#67 = CALENDAR_DATE ( 2019, 1, 10 ) ;
#68 = SHAPE_DEFINITION_REPRESENTATION ( #115, #156 ) ;
#69 = ORIENTED_EDGE ( 'NONE', *, *, #92, .T. ) ;
#70 = CYLINDRICAL_SURFACE ( 'NONE', #171, 25.39999999999999858 ) ;
#71 = AXIS2_PLACEMENT_3D ( 'NONE', #166, #147, #32 ) ;
#72 = CARTESIAN_POINT ( 'NONE',  ( -25.39999999999999858, 3.110602869834280021E-15, 3.500000000000000000 ) ) ;
#73 = EDGE_CURVE ( 'NONE', #122, #139, #2, .T. ) ;
#74 = CARTESIAN_POINT ( 'NONE',  ( 25.39999999999997371, 25.39999999999997371, -2.277119300805677149 ) ) ;
#75 = APPROVAL_PERSON_ORGANIZATION ( #34, #25, #91 ) ;
#76 = CARTESIAN_POINT ( 'NONE',  ( 0.0000000000000000000, 52.01999999999999602, 3.500000000000000000 ) ) ;
#77 = FACE_OUTER_BOUND ( 'NONE', #109, .T. ) ;
#78 = CARTESIAN_POINT ( 'NONE',  ( 25.39999999999999858, 0.0000000000000000000, -2.277119300805679813 ) ) ;
#79 = DATE_AND_TIME ( #49, #83 ) ;
#80 = APPROVAL_STATUS ( 'not_yet_approved' ) ;
#81 = APPLICATION_PROTOCOL_DEFINITION ( 'international standard', 'config_control_design', 1994, #129 ) ;
#82 = MECHANICAL_CONTEXT ( 'NONE', #23, 'mechanical' ) ;
#83 = LOCAL_TIME ( 12, 25, 10.00000000000000000, #170 ) ;
#84 = COORDINATED_UNIVERSAL_TIME_OFFSET ( 2, 0, .AHEAD. ) ;
#85 = EDGE_LOOP ( 'NONE', ( #176, #124, #97, #151 ) ) ;
#86 = COORDINATED_UNIVERSAL_TIME_OFFSET ( 2, 0, .AHEAD. ) ;
#87 = DIRECTION ( 'NONE',  ( 1.000000000000000000, 0.0000000000000000000, 0.0000000000000000000 ) ) ;
#88 = CARTESIAN_POINT ( 'NONE',  ( 25.39999999999999858, 0.0000000000000000000, 3.500000000000000000 ) ) ;
#89 = CARTESIAN_POINT ( 'NONE',  ( -25.40000000000024016, -25.39999999999996660, -2.277119300805676705 ) ) ;
#90 = FACE_OUTER_BOUND ( 'NONE', #85, .T. ) ;
#91 = APPROVAL_ROLE ( '' ) ;
#92 = EDGE_CURVE ( 'NONE', #153, #139, #119, .T. ) ;
#93 = PERSON_AND_ORGANIZATION ( #123, #13 ) ;
#94 = PERSON_AND_ORGANIZATION ( #123, #13 ) ;
#95 = CLOSED_SHELL ( 'NONE', ( #22, #65, #133, #160 ) ) ;
#96 = PERSON_AND_ORGANIZATION_ROLE ( 'creator' ) ;
#97 = ORIENTED_EDGE ( 'NONE', *, *, #142, .T. ) ;
#98 = UNCERTAINTY_MEASURE_WITH_UNIT (LENGTH_MEASURE( 1.000000000000000082E-05 ), #113, 'distance_accuracy_value', 'NONE');
#99 = APPROVAL_DATE_TIME ( #8, #25 ) ;
#100 = APPROVAL_PERSON_ORGANIZATION ( #162, #121, #10 ) ;
#101 = CC_DESIGN_DATE_AND_TIME_ASSIGNMENT ( #79, #103, ( #155 ) ) ;
#102 = DIRECTION ( 'NONE',  ( 0.0000000000000000000, 0.0000000000000000000, 1.000000000000000000 ) ) ;
#103 = DATE_TIME_ROLE ( 'creation_date' ) ;
#104 = AXIS2_PLACEMENT_3D ( 'NONE', #76, #168, #87 ) ;
#105 = EDGE_LOOP ( 'NONE', ( #55, #52, #50, #56 ) ) ;
#106 = LOCAL_TIME ( 12, 25, 10.00000000000000000, #84 ) ;
#107 = VERTEX_POINT ( 'NONE', #16 ) ;
#108 = CALENDAR_DATE ( 2019, 1, 10 ) ;
#109 = EDGE_LOOP ( 'NONE', ( #69, #35 ) ) ;
#110 = APPROVAL ( #80, 'UNSPECIFIED' ) ;
#111 = CARTESIAN_POINT ( 'NONE',  ( 1.555301434917139813E-15, 25.39999999999999858, -2.277119300805679813 ) ) ;
#112 = CC_DESIGN_APPROVAL ( #110, ( #155 ) ) ;
#113 =( LENGTH_UNIT ( ) NAMED_UNIT ( * ) SI_UNIT ( .MILLI., .METRE. ) );
#114 = CARTESIAN_POINT ( 'NONE',  ( 0.0000000000000000000, 0.0000000000000000000, 0.0000000000000000000 ) ) ;
#115 = PRODUCT_DEFINITION_SHAPE ( 'NONE', 'NONE',  #155 ) ;
#116 = CC_DESIGN_PERSON_AND_ORGANIZATION_ASSIGNMENT ( #148, #117, ( #155 ) ) ;
#117 = PERSON_AND_ORGANIZATION_ROLE ( 'creator' ) ;
#118 = PERSON_AND_ORGANIZATION_ROLE ( 'classification_officer' ) ;
#119 =( BOUNDED_CURVE ( )  B_SPLINE_CURVE ( 2, ( #88, #14, #154, #61, #15 ),
 .UNSPECIFIED., .F., .T. ) 
 B_SPLINE_CURVE_WITH_KNOTS ( ( 3, 2, 3 ),
 ( 0.0000000000000000000, 1.570796326794894116, 3.141592653589778905 ),
 .UNSPECIFIED. ) 
 CURVE ( )  GEOMETRIC_REPRESENTATION_ITEM ( )  RATIONAL_B_SPLINE_CURVE ( ( 1.000000000000000000, 0.7071067811865480168, 1.000000000000000000, 0.7071067811865501263, 0.9999999999999978906 ) ) 
 REPRESENTATION_ITEM ( '' )  );
#120 = DATE_AND_TIME ( #136, #106 ) ;
#121 = APPROVAL ( #159, 'UNSPECIFIED' ) ;
#122 = VERTEX_POINT ( 'NONE', #146 ) ;
#123 = PERSON ( 'UNSPECIFIED', 'UNSPECIFIED', 'UNSPECIFIED', ('UNSPECIFIED'), ('UNSPECIFIED'), ('UNSPECIFIED') ) ;
#124 = ORIENTED_EDGE ( 'NONE', *, *, #63, .T. ) ;
#125 = ORIENTED_EDGE ( 'NONE', *, *, #36, .F. ) ;
#126 = CARTESIAN_POINT ( 'NONE',  ( 25.39999999999997371, -25.39999999999997371, -2.277119300805677149 ) ) ;
#127 = CARTESIAN_POINT ( 'NONE',  ( 25.39999999999999858, 5.392603844284260389E-30, -2.277119300805679813 ) ) ;
#128 = LINE ( 'NONE', #127, #11 ) ;
#129 = APPLICATION_CONTEXT ( 'configuration controlled 3d designs of mechanical parts and assemblies' ) ;
#130 = CARTESIAN_POINT ( 'NONE',  ( -25.39999999999971081, 25.39999999999997371, -2.277119300805677149 ) ) ;
#131 = COORDINATED_UNIVERSAL_TIME_OFFSET ( 2, 0, .AHEAD. ) ;
#132 =( NAMED_UNIT ( * ) PLANE_ANGLE_UNIT ( ) SI_UNIT ( $, .RADIAN. ) );
#133 = ADVANCED_FACE ( 'NONE', ( #77 ), #62, .T. ) ;
#134 = LOCAL_TIME ( 12, 25, 10.00000000000000000, #28 ) ;
#135 = CARTESIAN_POINT ( 'NONE',  ( 25.39999999999997371, -25.39999999999997371, 3.500000000000003109 ) ) ;
#136 = CALENDAR_DATE ( 2019, 1, 10 ) ;
#137 = FACE_OUTER_BOUND ( 'NONE', #105, .T. ) ;
#138 = CC_DESIGN_SECURITY_CLASSIFICATION ( #161, ( #64 ) ) ;
#139 = VERTEX_POINT ( 'NONE', #27 ) ;
#140 = AXIS2_PLACEMENT_3D ( 'NONE', #58, #45, #143 ) ;
#141 = SECURITY_CLASSIFICATION_LEVEL ( 'unclassified' ) ;
#142 = EDGE_CURVE ( 'NONE', #107, #153, #128, .T. ) ;
#143 = DIRECTION ( 'NONE',  ( 0.0000000000000000000, 1.000000000000000000, 0.0000000000000000000 ) ) ;
#144 = LOCAL_TIME ( 12, 25, 10.00000000000000000, #131 ) ;
#145 = CARTESIAN_POINT ( 'NONE',  ( -4.665904304751420031E-15, -25.39999999999999858, -2.277119300805679813 ) ) ;
#146 = CARTESIAN_POINT ( 'NONE',  ( -25.39999999999999858, 3.110602869834280021E-15, -2.277119300805679813 ) ) ;
#147 = DIRECTION ( 'NONE',  ( 0.0000000000000000000, 0.0000000000000000000, 1.000000000000000000 ) ) ;
#148 = PERSON_AND_ORGANIZATION ( #123, #13 ) ;
#149 =( BOUNDED_CURVE ( )  B_SPLINE_CURVE ( 2, ( #37, #74, #111, #130, #26 ),
 .UNSPECIFIED., .F., .T. ) 
 B_SPLINE_CURVE_WITH_KNOTS ( ( 3, 2, 3 ),
 ( 0.0000000000000000000, 1.570796326794894116, 3.141592653589778905 ),
 .UNSPECIFIED. ) 
 CURVE ( )  GEOMETRIC_REPRESENTATION_ITEM ( )  RATIONAL_B_SPLINE_CURVE ( ( 1.000000000000000000, 0.7071067811865480168, 1.000000000000000000, 0.7071067811865501263, 0.9999999999999978906 ) ) 
 REPRESENTATION_ITEM ( '' )  );
#150 =( NAMED_UNIT ( * ) SI_UNIT ( $, .STERADIAN. ) SOLID_ANGLE_UNIT ( ) );
#151 = ORIENTED_EDGE ( 'NONE', *, *, #7, .F. ) ;
#152 = APPROVAL_DATE_TIME ( #163, #121 ) ;
#153 = VERTEX_POINT ( 'NONE', #179 ) ;
#154 = CARTESIAN_POINT ( 'NONE',  ( 1.555301434917139813E-15, 25.39999999999999858, 3.500000000000000000 ) ) ;
#155 = PRODUCT_DEFINITION ( 'UNKNOWN', '', #64, #66 ) ;
#156 = ADVANCED_BREP_SHAPE_REPRESENTATION ( '112-1519E UVFS pl-cv 50.8 F-300', ( #30, #57 ), #158 ) ;
#157 = PERSON_AND_ORGANIZATION_ROLE ( 'design_owner' ) ;
#158 =( GEOMETRIC_REPRESENTATION_CONTEXT ( 3 ) GLOBAL_UNCERTAINTY_ASSIGNED_CONTEXT ( ( #98 ) ) GLOBAL_UNIT_ASSIGNED_CONTEXT ( ( #113, #132, #150 ) ) REPRESENTATION_CONTEXT ( 'NONE', 'WORKASPACE' ) );
#159 = APPROVAL_STATUS ( 'not_yet_approved' ) ;
#160 = ADVANCED_FACE ( 'NONE', ( #90 ), #60, .T. ) ;
#161 = SECURITY_CLASSIFICATION ( '', '', #141 ) ;
#162 = PERSON_AND_ORGANIZATION ( #123, #13 ) ;
#163 = DATE_AND_TIME ( #108, #43 ) ;
#164 = CARTESIAN_POINT ( 'NONE',  ( -25.40000000000024016, -25.39999999999996660, 3.500000000000003109 ) ) ;
#165 = CARTESIAN_POINT ( 'NONE',  ( -25.39999999999999858, 1.021603022743526926E-14, -2.277119300805679813 ) ) ;
#166 = CARTESIAN_POINT ( 'NONE',  ( 9.992007221626410836E-16, 3.552713678800499352E-15, -2.277119300805679813 ) ) ;
#167 = CC_DESIGN_PERSON_AND_ORGANIZATION_ASSIGNMENT ( #21, #175, ( #64 ) ) ;
#168 = DIRECTION ( 'NONE',  ( 0.0000000000000000000, 0.0000000000000000000, 1.000000000000000000 ) ) ;
#169 = DIRECTION ( 'NONE',  ( 1.000000000000000000, 0.0000000000000000000, 0.0000000000000000000 ) ) ;
#170 = COORDINATED_UNIVERSAL_TIME_OFFSET ( 2, 0, .AHEAD. ) ;
#171 = AXIS2_PLACEMENT_3D ( 'NONE', #174, #6, #39 ) ;
#172 =( BOUNDED_CURVE ( )  B_SPLINE_CURVE ( 2, ( #72, #164, #19, #135, #42 ),
 .UNSPECIFIED., .F., .F. ) 
 B_SPLINE_CURVE_WITH_KNOTS ( ( 3, 2, 3 ),
 ( 3.141592653589778461, 4.712388980384684345, 6.283185307179590673 ),
 .UNSPECIFIED. ) 
 CURVE ( )  GEOMETRIC_REPRESENTATION_ITEM ( )  RATIONAL_B_SPLINE_CURVE ( ( 1.000000000000002220, 0.7071067811865459074, 1.000000000000000000, 0.7071067811865480168, 1.000000000000000000 ) ) 
 REPRESENTATION_ITEM ( '' )  );
#173 = CC_DESIGN_PERSON_AND_ORGANIZATION_ASSIGNMENT ( #51, #118, ( #161 ) ) ;
#174 = CARTESIAN_POINT ( 'NONE',  ( 9.992007221626410836E-16, 3.552713678800499352E-15, -2.277119300805679813 ) ) ;
#175 = PERSON_AND_ORGANIZATION_ROLE ( 'design_supplier' ) ;
#176 = ORIENTED_EDGE ( 'NONE', *, *, #73, .F. ) ;
#177 = CC_DESIGN_APPROVAL ( #121, ( #161 ) ) ;
#178 = DIRECTION ( 'NONE',  ( 0.0000000000000000000, 0.0000000000000000000, 1.000000000000000000 ) ) ;
#179 = CARTESIAN_POINT ( 'NONE',  ( 25.39999999999999858, 0.0000000000000000000, 3.500000000000000000 ) ) ;
ENDSEC;
END-ISO-10303-21;
