ISO-10303-21;
HEADER;
FILE_DESCRIPTION (( 'STEP AP203' ),
    '1' );
FILE_NAME ('112-1517E UVFS pl-cv 50.8 F-250.STEP',
    '2019-10-01T07:19:51',
    ( '' ),
    ( '' ),
    'SwSTEP 2.0',
    'SolidWorks 2019',
    '' );
FILE_SCHEMA (( 'CONFIG_CONTROL_DESIGN' ));
ENDSEC;

DATA;
#1 = EDGE_CURVE ( 'NONE', #32, #126, #113, .T. ) ;
#2 = APPROVAL ( #27, 'UNSPECIFIED' ) ;
#3 = AXIS2_PLACEMENT_3D ( 'NONE', #153, #86, #173 ) ;
#4 = SECURITY_CLASSIFICATION ( '', '', #146 ) ;
#5 = CARTESIAN_POINT ( 'NONE',  ( -25.39999999999999858, 3.110602869834280021E-15, 3.100000000000000089 ) ) ;
#6 = CARTESIAN_POINT ( 'NONE',  ( 9.992007221626410836E-16, 3.552713678800499352E-15, -2.742355090084510394 ) ) ;
#7 = CARTESIAN_POINT ( 'NONE',  ( -4.665904304751420031E-15, -25.39999999999999858, -2.742355090084510394 ) ) ;
#8 = CARTESIAN_POINT ( 'NONE',  ( 0.0000000000000000000, 0.0000000000000000000, 0.0000000000000000000 ) ) ;
#9 = LOCAL_TIME ( 10, 19, 51.00000000000000000, #75 ) ;
#10 = PERSON_AND_ORGANIZATION ( #51, #99 ) ;
#11 = CARTESIAN_POINT ( 'NONE',  ( 25.39999999999999858, 0.0000000000000000000, 3.100000000000000089 ) ) ;
#12 = PERSON_AND_ORGANIZATION_ROLE ( 'classification_officer' ) ;
#13 =( NAMED_UNIT ( * ) PLANE_ANGLE_UNIT ( ) SI_UNIT ( $, .RADIAN. ) );
#14 = EDGE_LOOP ( 'NONE', ( #138, #147, #109, #95 ) ) ;
#15 = VERTEX_POINT ( 'NONE', #46 ) ;
#16 = APPROVAL ( #93, 'UNSPECIFIED' ) ;
#17 = CARTESIAN_POINT ( 'NONE',  ( -25.39999999999999858, 3.110602869834280021E-15, -2.742355090084510394 ) ) ;
#18 = APPROVAL_PERSON_ORGANIZATION ( #30, #2, #60 ) ;
#19 = FACE_OUTER_BOUND ( 'NONE', #14, .T. ) ;
#20 = FACE_OUTER_BOUND ( 'NONE', #136, .T. ) ;
#21 = PLANE ( 'NONE',  #125 ) ;
#22 = FACE_OUTER_BOUND ( 'NONE', #79, .T. ) ;
#23 = VECTOR ( 'NONE', #98, 1000.000000000000000 ) ;
#24 = DATE_TIME_ROLE ( 'creation_date' ) ;
#25 = APPLICATION_CONTEXT ( 'configuration controlled 3d designs of mechanical parts and assemblies' ) ;
#26 = COORDINATED_UNIVERSAL_TIME_OFFSET ( 2, 0, .AHEAD. ) ;
#27 = APPROVAL_STATUS ( 'not_yet_approved' ) ;
#28 = PRODUCT_DEFINITION_SHAPE ( 'NONE', 'NONE',  #174 ) ;
#29 = CALENDAR_DATE ( 2019, 1, 10 ) ;
#30 = PERSON_AND_ORGANIZATION ( #51, #99 ) ;
#31 = CC_DESIGN_PERSON_AND_ORGANIZATION_ASSIGNMENT ( #160, #165, ( #174 ) ) ;
#32 = VERTEX_POINT ( 'NONE', #152 ) ;
#33 = CARTESIAN_POINT ( 'NONE',  ( 25.39999999999999858, 0.0000000000000000000, 3.100000000000000089 ) ) ;
#34 = AXIS2_PLACEMENT_3D ( 'NONE', #8, #72, #74 ) ;
#35 = ADVANCED_BREP_SHAPE_REPRESENTATION ( '112-1517E UVFS pl-cv 50.8 F-250', ( #156, #34 ), #151 ) ;
#36 = CARTESIAN_POINT ( 'NONE',  ( -25.39999999999971081, 25.39999999999997371, 3.100000000000000533 ) ) ;
#37 = ADVANCED_FACE ( 'NONE', ( #50 ), #65, .T. ) ;
#38 = CARTESIAN_POINT ( 'NONE',  ( 25.39999999999997371, -25.39999999999997371, -2.742355090084511726 ) ) ;
#39 = SPHERICAL_SURFACE ( 'NONE', #167, 119.0000000000000000 ) ;
#40 =( LENGTH_UNIT ( ) NAMED_UNIT ( * ) SI_UNIT ( .MILLI., .METRE. ) );
#41 = PERSON_AND_ORGANIZATION ( #51, #99 ) ;
#42 = SHAPE_DEFINITION_REPRESENTATION ( #28, #35 ) ;
#43 = PRODUCT_RELATED_PRODUCT_CATEGORY ( 'detail', '', ( #58 ) ) ;
#44 = EDGE_CURVE ( 'NONE', #15, #47, #134, .T. ) ;
#45 = DATE_AND_TIME ( #29, #122 ) ;
#46 = CARTESIAN_POINT ( 'NONE',  ( 25.39999999999999858, 0.0000000000000000000, 3.100000000000000089 ) ) ;
#47 = VERTEX_POINT ( 'NONE', #5 ) ;
#48 = ORIENTED_EDGE ( 'NONE', *, *, #1, .F. ) ;
#49 = VECTOR ( 'NONE', #130, 1000.000000000000000 ) ;
#50 = FACE_OUTER_BOUND ( 'NONE', #124, .T. ) ;
#51 = PERSON ( 'UNSPECIFIED', 'UNSPECIFIED', 'UNSPECIFIED', ('UNSPECIFIED'), ('UNSPECIFIED'), ('UNSPECIFIED') ) ;
#52 = CARTESIAN_POINT ( 'NONE',  ( 25.39999999999999858, 5.392603844284260389E-30, -2.742355090084510394 ) ) ;
#53 = CC_DESIGN_SECURITY_CLASSIFICATION ( #4, ( #143 ) ) ;
#54 = CARTESIAN_POINT ( 'NONE',  ( -25.39999999999999858, 3.110602869834280021E-15, 3.100000000000000089 ) ) ;
#55 = DATE_AND_TIME ( #118, #104 ) ;
#56 =( NAMED_UNIT ( * ) SI_UNIT ( $, .STERADIAN. ) SOLID_ANGLE_UNIT ( ) );
#57 = APPROVAL_DATE_TIME ( #78, #150 ) ;
#58 = PRODUCT ( '112-1517E UVFS pl-cv 50.8 F-250', '112-1517E UVFS pl-cv 50.8 F-250', '', ( #164 ) ) ;
#59 = APPROVAL_DATE_TIME ( #166, #16 ) ;
#60 = APPROVAL_ROLE ( '' ) ;
#61 =( BOUNDED_CURVE ( )  B_SPLINE_CURVE ( 2, ( #145, #131, #158, #90, #11 ),
 .UNSPECIFIED., .F., .F. ) 
 B_SPLINE_CURVE_WITH_KNOTS ( ( 3, 2, 3 ),
 ( 3.141592653589778461, 4.712388980384684345, 6.283185307179590673 ),
 .UNSPECIFIED. ) 
 CURVE ( )  GEOMETRIC_REPRESENTATION_ITEM ( )  RATIONAL_B_SPLINE_CURVE ( ( 1.000000000000002220, 0.7071067811865459074, 1.000000000000000000, 0.7071067811865480168, 1.000000000000000000 ) ) 
 REPRESENTATION_ITEM ( '' )  );
#62 = ORIENTED_EDGE ( 'NONE', *, *, #105, .F. ) ;
#63 = LOCAL_TIME ( 10, 19, 51.00000000000000000, #176 ) ;
#64 = CC_DESIGN_PERSON_AND_ORGANIZATION_ASSIGNMENT ( #101, #175, ( #58 ) ) ;
#65 = CYLINDRICAL_SURFACE ( 'NONE', #3, 25.39999999999999858 ) ;
#66 =( BOUNDED_CURVE ( )  B_SPLINE_CURVE ( 2, ( #127, #161, #7, #38, #69 ),
 .UNSPECIFIED., .F., .T. ) 
 B_SPLINE_CURVE_WITH_KNOTS ( ( 3, 2, 3 ),
 ( 3.141592653589778461, 4.712388980384684345, 6.283185307179590673 ),
 .UNSPECIFIED. ) 
 CURVE ( )  GEOMETRIC_REPRESENTATION_ITEM ( )  RATIONAL_B_SPLINE_CURVE ( ( 1.000000000000002220, 0.7071067811865459074, 1.000000000000000000, 0.7071067811865480168, 1.000000000000000000 ) ) 
 REPRESENTATION_ITEM ( '' )  );
#67 = CC_DESIGN_PERSON_AND_ORGANIZATION_ASSIGNMENT ( #121, #144, ( #143 ) ) ;
#68 = CARTESIAN_POINT ( 'NONE',  ( 1.555301434917139813E-15, 25.39999999999999858, 3.100000000000000089 ) ) ;
#69 = CARTESIAN_POINT ( 'NONE',  ( 25.39999999999999858, 0.0000000000000000000, -2.742355090084510394 ) ) ;
#70 = EDGE_CURVE ( 'NONE', #32, #15, #83, .T. ) ;
#71 = APPROVAL_PERSON_ORGANIZATION ( #41, #150, #77 ) ;
#72 = DIRECTION ( 'NONE',  ( 0.0000000000000000000, 0.0000000000000000000, 1.000000000000000000 ) ) ;
#73 = PERSON_AND_ORGANIZATION ( #51, #99 ) ;
#74 = DIRECTION ( 'NONE',  ( 1.000000000000000000, 0.0000000000000000000, 0.0000000000000000000 ) ) ;
#75 = COORDINATED_UNIVERSAL_TIME_OFFSET ( 2, 0, .AHEAD. ) ;
#76 = ADVANCED_FACE ( 'NONE', ( #19 ), #154, .T. ) ;
#77 = APPROVAL_ROLE ( '' ) ;
#78 = DATE_AND_TIME ( #133, #63 ) ;
#79 = EDGE_LOOP ( 'NONE', ( #48, #62 ) ) ;
#80 = ORIENTED_EDGE ( 'NONE', *, *, #44, .F. ) ;
#81 = CC_DESIGN_APPROVAL ( #2, ( #143 ) ) ;
#82 = DIRECTION ( 'NONE',  ( 0.0000000000000000000, 0.0000000000000000000, 1.000000000000000000 ) ) ;
#83 = LINE ( 'NONE', #52, #23 ) ;
#84 = DESIGN_CONTEXT ( 'detailed design', #106, 'design' ) ;
#85 = CARTESIAN_POINT ( 'NONE',  ( 0.0000000000000000000, 52.01999999999999602, 3.100000000000000089 ) ) ;
#86 = DIRECTION ( 'NONE',  ( 0.0000000000000000000, 0.0000000000000000000, 1.000000000000000000 ) ) ;
#87 = CC_DESIGN_DATE_AND_TIME_ASSIGNMENT ( #55, #91, ( #4 ) ) ;
#88 = AXIS2_PLACEMENT_3D ( 'NONE', #6, #155, #128 ) ;
#89 = PERSON_AND_ORGANIZATION_ROLE ( 'design_supplier' ) ;
#90 = CARTESIAN_POINT ( 'NONE',  ( 25.39999999999997371, -25.39999999999997371, 3.100000000000000977 ) ) ;
#91 = DATE_TIME_ROLE ( 'classification_date' ) ;
#92 = LOCAL_TIME ( 10, 19, 51.00000000000000000, #159 ) ;
#93 = APPROVAL_STATUS ( 'not_yet_approved' ) ;
#94 = CC_DESIGN_PERSON_AND_ORGANIZATION_ASSIGNMENT ( #73, #89, ( #143 ) ) ;
#95 = ORIENTED_EDGE ( 'NONE', *, *, #171, .F. ) ;
#96 = LINE ( 'NONE', #162, #49 ) ;
#97 = CC_DESIGN_APPROVAL ( #150, ( #174 ) ) ;
#98 = DIRECTION ( 'NONE',  ( 0.0000000000000000000, 0.0000000000000000000, 1.000000000000000000 ) ) ;
#99 = ORGANIZATION ( 'UNSPECIFIED', 'UNSPECIFIED', '' ) ;
#100 = ADVANCED_FACE ( 'NONE', ( #20 ), #21, .T. ) ;
#101 = PERSON_AND_ORGANIZATION ( #51, #99 ) ;
#102 = APPROVAL_STATUS ( 'not_yet_approved' ) ;
#103 = PERSON_AND_ORGANIZATION ( #51, #99 ) ;
#104 = LOCAL_TIME ( 10, 19, 51.00000000000000000, #26 ) ;
#105 = EDGE_CURVE ( 'NONE', #126, #32, #66, .T. ) ;
#106 = APPLICATION_CONTEXT ( 'configuration controlled 3d designs of mechanical parts and assemblies' ) ;
#107 = ADVANCED_FACE ( 'NONE', ( #22 ), #39, .F. ) ;
#108 = ORIENTED_EDGE ( 'NONE', *, *, #1, .T. ) ;
#109 = ORIENTED_EDGE ( 'NONE', *, *, #70, .T. ) ;
#110 = DIRECTION ( 'NONE',  ( 3.576540790375508528E-17, 4.664802624475447839E-16, 1.000000000000000000 ) ) ;
#111 = CLOSED_SHELL ( 'NONE', ( #37, #107, #100, #76 ) ) ;
#112 = CARTESIAN_POINT ( 'NONE',  ( 25.39999999999997371, 25.39999999999997371, 3.100000000000000977 ) ) ;
#113 =( BOUNDED_CURVE ( )  B_SPLINE_CURVE ( 2, ( #149, #169, #123, #168, #17 ),
 .UNSPECIFIED., .F., .T. ) 
 B_SPLINE_CURVE_WITH_KNOTS ( ( 3, 2, 3 ),
 ( 0.0000000000000000000, 1.570796326794894116, 3.141592653589778905 ),
 .UNSPECIFIED. ) 
 CURVE ( )  GEOMETRIC_REPRESENTATION_ITEM ( )  RATIONAL_B_SPLINE_CURVE ( ( 1.000000000000000000, 0.7071067811865480168, 1.000000000000000000, 0.7071067811865501263, 0.9999999999999978906 ) ) 
 REPRESENTATION_ITEM ( '' )  );
#114 = CC_DESIGN_APPROVAL ( #16, ( #4 ) ) ;
#115 = APPLICATION_PROTOCOL_DEFINITION ( 'international standard', 'config_control_design', 1994, #106 ) ;
#116 = CALENDAR_DATE ( 2019, 1, 10 ) ;
#117 = APPLICATION_PROTOCOL_DEFINITION ( 'international standard', 'config_control_design', 1994, #25 ) ;
#118 = CALENDAR_DATE ( 2019, 1, 10 ) ;
#119 = CC_DESIGN_DATE_AND_TIME_ASSIGNMENT ( #45, #24, ( #174 ) ) ;
#120 = CC_DESIGN_PERSON_AND_ORGANIZATION_ASSIGNMENT ( #103, #12, ( #4 ) ) ;
#121 = PERSON_AND_ORGANIZATION ( #51, #99 ) ;
#122 = LOCAL_TIME ( 10, 19, 51.00000000000000000, #179 ) ;
#123 = CARTESIAN_POINT ( 'NONE',  ( 1.555301434917139813E-15, 25.39999999999999858, -2.742355090084510394 ) ) ;
#124 = EDGE_LOOP ( 'NONE', ( #108, #137, #80, #170 ) ) ;
#125 = AXIS2_PLACEMENT_3D ( 'NONE', #85, #82, #129 ) ;
#126 = VERTEX_POINT ( 'NONE', #172 ) ;
#127 = CARTESIAN_POINT ( 'NONE',  ( -25.39999999999999858, 3.110602869834280021E-15, -2.742355090084510394 ) ) ;
#128 = DIRECTION ( 'NONE',  ( 1.000000000000000000, -1.398706172756100243E-16, 0.0000000000000000000 ) ) ;
#129 = DIRECTION ( 'NONE',  ( 1.000000000000000000, 0.0000000000000000000, 0.0000000000000000000 ) ) ;
#130 = DIRECTION ( 'NONE',  ( 0.0000000000000000000, 0.0000000000000000000, 1.000000000000000000 ) ) ;
#131 = CARTESIAN_POINT ( 'NONE',  ( -25.40000000000024016, -25.39999999999996660, 3.100000000000000977 ) ) ;
#132 = APPROVAL_ROLE ( '' ) ;
#133 = CALENDAR_DATE ( 2019, 1, 10 ) ;
#134 =( BOUNDED_CURVE ( )  B_SPLINE_CURVE ( 2, ( #33, #112, #68, #36, #54 ),
 .UNSPECIFIED., .F., .T. ) 
 B_SPLINE_CURVE_WITH_KNOTS ( ( 3, 2, 3 ),
 ( 0.0000000000000000000, 1.570796326794894116, 3.141592653589778905 ),
 .UNSPECIFIED. ) 
 CURVE ( )  GEOMETRIC_REPRESENTATION_ITEM ( )  RATIONAL_B_SPLINE_CURVE ( ( 1.000000000000000000, 0.7071067811865480168, 1.000000000000000000, 0.7071067811865501263, 0.9999999999999978906 ) ) 
 REPRESENTATION_ITEM ( '' )  );
#135 = ORIENTED_EDGE ( 'NONE', *, *, #171, .T. ) ;
#136 = EDGE_LOOP ( 'NONE', ( #148, #135 ) ) ;
#137 = ORIENTED_EDGE ( 'NONE', *, *, #139, .T. ) ;
#138 = ORIENTED_EDGE ( 'NONE', *, *, #139, .F. ) ;
#139 = EDGE_CURVE ( 'NONE', #126, #47, #96, .T. ) ;
#140 = CARTESIAN_POINT ( 'NONE',  ( -2.842170943040399481E-14, -2.131628207280299927E-14, -119.0000000000000000 ) ) ;
#141 = UNCERTAINTY_MEASURE_WITH_UNIT (LENGTH_MEASURE( 1.000000000000000082E-05 ), #40, 'distance_accuracy_value', 'NONE');
#142 = APPROVAL_DATE_TIME ( #177, #2 ) ;
#143 = PRODUCT_DEFINITION_FORMATION_WITH_SPECIFIED_SOURCE ( 'ANY', '', #58, .NOT_KNOWN. ) ;
#144 = PERSON_AND_ORGANIZATION_ROLE ( 'creator' ) ;
#145 = CARTESIAN_POINT ( 'NONE',  ( -25.39999999999999858, 3.110602869834280021E-15, 3.100000000000000089 ) ) ;
#146 = SECURITY_CLASSIFICATION_LEVEL ( 'unclassified' ) ;
#147 = ORIENTED_EDGE ( 'NONE', *, *, #105, .T. ) ;
#148 = ORIENTED_EDGE ( 'NONE', *, *, #44, .T. ) ;
#149 = CARTESIAN_POINT ( 'NONE',  ( 25.39999999999999858, 0.0000000000000000000, -2.742355090084510394 ) ) ;
#150 = APPROVAL ( #102, 'UNSPECIFIED' ) ;
#151 =( GEOMETRIC_REPRESENTATION_CONTEXT ( 3 ) GLOBAL_UNCERTAINTY_ASSIGNED_CONTEXT ( ( #141 ) ) GLOBAL_UNIT_ASSIGNED_CONTEXT ( ( #40, #13, #56 ) ) REPRESENTATION_CONTEXT ( 'NONE', 'WORKASPACE' ) );
#152 = CARTESIAN_POINT ( 'NONE',  ( 25.39999999999999858, 0.0000000000000000000, -2.742355090084510394 ) ) ;
#153 = CARTESIAN_POINT ( 'NONE',  ( 9.992007221626410836E-16, 3.552713678800499352E-15, -2.742355090084510394 ) ) ;
#154 = CYLINDRICAL_SURFACE ( 'NONE', #88, 25.39999999999999858 ) ;
#155 = DIRECTION ( 'NONE',  ( 0.0000000000000000000, 0.0000000000000000000, 1.000000000000000000 ) ) ;
#156 = MANIFOLD_SOLID_BREP ( '112-1517E.STP', #111 ) ;
#157 = DIRECTION ( 'NONE',  ( -2.441897141834630755E-16, 1.000000000000000000, -4.664802624475447839E-16 ) ) ;
#158 = CARTESIAN_POINT ( 'NONE',  ( -4.665904304751420031E-15, -25.39999999999999858, 3.100000000000000089 ) ) ;
#159 = COORDINATED_UNIVERSAL_TIME_OFFSET ( 2, 0, .AHEAD. ) ;
#160 = PERSON_AND_ORGANIZATION ( #51, #99 ) ;
#161 = CARTESIAN_POINT ( 'NONE',  ( -25.40000000000024016, -25.39999999999996660, -2.742355090084511726 ) ) ;
#162 = CARTESIAN_POINT ( 'NONE',  ( -25.39999999999999858, 1.021603022743526926E-14, -2.742355090084510394 ) ) ;
#163 = APPROVAL_PERSON_ORGANIZATION ( #10, #16, #132 ) ;
#164 = MECHANICAL_CONTEXT ( 'NONE', #25, 'mechanical' ) ;
#165 = PERSON_AND_ORGANIZATION_ROLE ( 'creator' ) ;
#166 = DATE_AND_TIME ( #116, #92 ) ;
#167 = AXIS2_PLACEMENT_3D ( 'NONE', #140, #110, #157 ) ;
#168 = CARTESIAN_POINT ( 'NONE',  ( -25.39999999999971081, 25.39999999999997371, -2.742355090084512170 ) ) ;
#169 = CARTESIAN_POINT ( 'NONE',  ( 25.39999999999997371, 25.39999999999997371, -2.742355090084511726 ) ) ;
#170 = ORIENTED_EDGE ( 'NONE', *, *, #70, .F. ) ;
#171 = EDGE_CURVE ( 'NONE', #47, #15, #61, .T. ) ;
#172 = CARTESIAN_POINT ( 'NONE',  ( -25.39999999999999858, 3.110602869834280021E-15, -2.742355090084510394 ) ) ;
#173 = DIRECTION ( 'NONE',  ( 1.000000000000000000, -1.398706172756100243E-16, 0.0000000000000000000 ) ) ;
#174 = PRODUCT_DEFINITION ( 'UNKNOWN', '', #143, #84 ) ;
#175 = PERSON_AND_ORGANIZATION_ROLE ( 'design_owner' ) ;
#176 = COORDINATED_UNIVERSAL_TIME_OFFSET ( 2, 0, .AHEAD. ) ;
#177 = DATE_AND_TIME ( #178, #9 ) ;
#178 = CALENDAR_DATE ( 2019, 1, 10 ) ;
#179 = COORDINATED_UNIVERSAL_TIME_OFFSET ( 2, 0, .AHEAD. ) ;
ENDSEC;
END-ISO-10303-21;
