ISO-10303-21;
HEADER;
FILE_DESCRIPTION (( 'STEP AP203' ),
    '1' );
FILE_NAME ('112-1512E UVFS pl-cv 50.8 F-150.STEP',
    '2019-10-01T07:19:32',
    ( '' ),
    ( '' ),
    'SwSTEP 2.0',
    'SolidWorks 2019',
    '' );
FILE_SCHEMA (( 'CONFIG_CONTROL_DESIGN' ));
ENDSEC;

DATA;
#1 = FACE_OUTER_BOUND ( 'NONE', #74, .T. ) ;
#2 = UNCERTAINTY_MEASURE_WITH_UNIT (LENGTH_MEASURE( 1.000000000000000082E-05 ), #38, 'distance_accuracy_value', 'NONE');
#3 = DIRECTION ( 'NONE',  ( 1.000000000000000000, -1.398706172756100243E-16, 0.0000000000000000000 ) ) ;
#4 = DIRECTION ( 'NONE',  ( 0.0000000000000000000, 0.0000000000000000000, 1.000000000000000000 ) ) ;
#5 = PERSON_AND_ORGANIZATION ( #99, #44 ) ;
#6 = COORDINATED_UNIVERSAL_TIME_OFFSET ( 2, 0, .AHEAD. ) ;
#7 = APPROVAL_DATE_TIME ( #124, #120 ) ;
#8 = EDGE_CURVE ( 'NONE', #54, #41, #179, .T. ) ;
#9 = APPROVAL_STATUS ( 'not_yet_approved' ) ;
#10 = CARTESIAN_POINT ( 'NONE',  ( -25.40000000000024016, -25.39999999999996660, 3.200000000000001510 ) ) ;
#11 = AXIS2_PLACEMENT_3D ( 'NONE', #31, #139, #12 ) ;
#12 = DIRECTION ( 'NONE',  ( 1.000000000000000000, -1.398706172756100243E-16, 0.0000000000000000000 ) ) ;
#13 = PRODUCT_RELATED_PRODUCT_CATEGORY ( 'detail', '', ( #149 ) ) ;
#14 = CARTESIAN_POINT ( 'NONE',  ( 25.39999999999999858, 0.0000000000000000000, 3.200000000000000178 ) ) ;
#15 =( BOUNDED_CURVE ( )  B_SPLINE_CURVE ( 2, ( #16, #153, #130, #91, #169 ),
 .UNSPECIFIED., .F., .T. ) 
 B_SPLINE_CURVE_WITH_KNOTS ( ( 3, 2, 3 ),
 ( 0.0000000000000000000, 1.570796326794894116, 3.141592653589778905 ),
 .UNSPECIFIED. ) 
 CURVE ( )  GEOMETRIC_REPRESENTATION_ITEM ( )  RATIONAL_B_SPLINE_CURVE ( ( 1.000000000000000000, 0.7071067811865480168, 1.000000000000000000, 0.7071067811865501263, 0.9999999999999978906 ) ) 
 REPRESENTATION_ITEM ( '' )  );
#16 = CARTESIAN_POINT ( 'NONE',  ( 25.39999999999999858, 0.0000000000000000000, 3.200000000000000178 ) ) ;
#17 = CARTESIAN_POINT ( 'NONE',  ( 9.992007221626410836E-16, 3.552713678800499352E-15, -4.669996254120570178 ) ) ;
#18 = PERSON_AND_ORGANIZATION ( #99, #44 ) ;
#19 = APPLICATION_PROTOCOL_DEFINITION ( 'international standard', 'config_control_design', 1994, #59 ) ;
#20 =( GEOMETRIC_REPRESENTATION_CONTEXT ( 3 ) GLOBAL_UNCERTAINTY_ASSIGNED_CONTEXT ( ( #2 ) ) GLOBAL_UNIT_ASSIGNED_CONTEXT ( ( #38, #48, #95 ) ) REPRESENTATION_CONTEXT ( 'NONE', 'WORKASPACE' ) );
#21 = PERSON_AND_ORGANIZATION_ROLE ( 'creator' ) ;
#22 = APPROVAL_ROLE ( '' ) ;
#23 = APPLICATION_PROTOCOL_DEFINITION ( 'international standard', 'config_control_design', 1994, #68 ) ;
#24 = ORIENTED_EDGE ( 'NONE', *, *, #126, .T. ) ;
#25 = PRODUCT_DEFINITION_FORMATION_WITH_SPECIFIED_SOURCE ( 'ANY', '', #149, .NOT_KNOWN. ) ;
#26 = CARTESIAN_POINT ( 'NONE',  ( 25.39999999999999858, 0.0000000000000000000, 3.200000000000000178 ) ) ;
#27 = EDGE_CURVE ( 'NONE', #177, #54, #163, .T. ) ;
#28 = ORIENTED_EDGE ( 'NONE', *, *, #156, .F. ) ;
#29 = CARTESIAN_POINT ( 'NONE',  ( -25.39999999999971081, 25.39999999999997371, -4.669996254120573731 ) ) ;
#30 = VECTOR ( 'NONE', #61, 1000.000000000000000 ) ;
#31 = CARTESIAN_POINT ( 'NONE',  ( 9.992007221626410836E-16, 3.552713678800499352E-15, -4.669996254120570178 ) ) ;
#32 = CARTESIAN_POINT ( 'NONE',  ( 0.0000000000000000000, 52.01999999999999602, 3.200000000000000178 ) ) ;
#33 = FACE_OUTER_BOUND ( 'NONE', #55, .T. ) ;
#34 = PERSON_AND_ORGANIZATION ( #99, #44 ) ;
#35 = CALENDAR_DATE ( 2019, 1, 10 ) ;
#36 = LOCAL_TIME ( 10, 19, 32.00000000000000000, #71 ) ;
#37 = DIRECTION ( 'NONE',  ( 0.0000000000000000000, 0.0000000000000000000, 1.000000000000000000 ) ) ;
#38 =( LENGTH_UNIT ( ) NAMED_UNIT ( * ) SI_UNIT ( .MILLI., .METRE. ) );
#39 = APPROVAL ( #145, 'UNSPECIFIED' ) ;
#40 = DATE_AND_TIME ( #123, #36 ) ;
#41 = VERTEX_POINT ( 'NONE', #14 ) ;
#42 = CARTESIAN_POINT ( 'NONE',  ( -4.665904304751420031E-15, -25.39999999999999858, 3.200000000000000178 ) ) ;
#43 = PRODUCT_DEFINITION_SHAPE ( 'NONE', 'NONE',  #101 ) ;
#44 = ORGANIZATION ( 'UNSPECIFIED', 'UNSPECIFIED', '' ) ;
#45 = DIRECTION ( 'NONE',  ( 0.0000000000000000000, -3.886791151887538535E-16, 1.000000000000000000 ) ) ;
#46 = CARTESIAN_POINT ( 'NONE',  ( -3.552713678800499667E-14, -7.105427357600998703E-15, -71.40999999999999659 ) ) ;
#47 = DIRECTION ( 'NONE',  ( 0.0000000000000000000, 0.0000000000000000000, 1.000000000000000000 ) ) ;
#48 =( NAMED_UNIT ( * ) PLANE_ANGLE_UNIT ( ) SI_UNIT ( $, .RADIAN. ) );
#49 = PERSON_AND_ORGANIZATION ( #99, #44 ) ;
#50 = DATE_TIME_ROLE ( 'classification_date' ) ;
#51 = APPROVAL_STATUS ( 'not_yet_approved' ) ;
#52 = CALENDAR_DATE ( 2019, 1, 10 ) ;
#53 = APPROVAL_PERSON_ORGANIZATION ( #98, #39, #22 ) ;
#54 = VERTEX_POINT ( 'NONE', #128 ) ;
#55 = EDGE_LOOP ( 'NONE', ( #161, #125 ) ) ;
#56 = ORIENTED_EDGE ( 'NONE', *, *, #27, .F. ) ;
#57 =( BOUNDED_CURVE ( )  B_SPLINE_CURVE ( 2, ( #140, #77, #92, #127, #60 ),
 .UNSPECIFIED., .F., .T. ) 
 B_SPLINE_CURVE_WITH_KNOTS ( ( 3, 2, 3 ),
 ( 3.141592653589778461, 4.712388980384684345, 6.283185307179590673 ),
 .UNSPECIFIED. ) 
 CURVE ( )  GEOMETRIC_REPRESENTATION_ITEM ( )  RATIONAL_B_SPLINE_CURVE ( ( 1.000000000000002220, 0.7071067811865459074, 1.000000000000000000, 0.7071067811865480168, 1.000000000000000000 ) ) 
 REPRESENTATION_ITEM ( '' )  );
#58 = ORIENTED_EDGE ( 'NONE', *, *, #27, .T. ) ;
#59 = APPLICATION_CONTEXT ( 'configuration controlled 3d designs of mechanical parts and assemblies' ) ;
#60 = CARTESIAN_POINT ( 'NONE',  ( 25.39999999999999858, 0.0000000000000000000, -4.669996254120570178 ) ) ;
#61 = DIRECTION ( 'NONE',  ( 0.0000000000000000000, 0.0000000000000000000, 1.000000000000000000 ) ) ;
#62 = PLANE ( 'NONE',  #166 ) ;
#63 = ADVANCED_FACE ( 'NONE', ( #33 ), #62, .T. ) ;
#64 = FACE_OUTER_BOUND ( 'NONE', #75, .T. ) ;
#65 = CC_DESIGN_PERSON_AND_ORGANIZATION_ASSIGNMENT ( #176, #21, ( #101 ) ) ;
#66 = LOCAL_TIME ( 10, 19, 32.00000000000000000, #135 ) ;
#67 = SECURITY_CLASSIFICATION_LEVEL ( 'unclassified' ) ;
#68 = APPLICATION_CONTEXT ( 'configuration controlled 3d designs of mechanical parts and assemblies' ) ;
#69 = CARTESIAN_POINT ( 'NONE',  ( -25.39999999999999858, 3.110602869834280021E-15, -4.669996254120570178 ) ) ;
#70 = PERSON_AND_ORGANIZATION_ROLE ( 'creator' ) ;
#71 = COORDINATED_UNIVERSAL_TIME_OFFSET ( 2, 0, .AHEAD. ) ;
#72 = EDGE_LOOP ( 'NONE', ( #56, #148, #115, #103 ) ) ;
#73 = SECURITY_CLASSIFICATION ( '', '', #67 ) ;
#74 = EDGE_LOOP ( 'NONE', ( #114, #28 ) ) ;
#75 = EDGE_LOOP ( 'NONE', ( #24, #58, #136, #162 ) ) ;
#76 = CC_DESIGN_DATE_AND_TIME_ASSIGNMENT ( #122, #50, ( #73 ) ) ;
#77 = CARTESIAN_POINT ( 'NONE',  ( -25.40000000000024016, -25.39999999999996660, -4.669996254120572843 ) ) ;
#78 = LOCAL_TIME ( 10, 19, 32.00000000000000000, #6 ) ;
#79 = EDGE_CURVE ( 'NONE', #102, #41, #118, .T. ) ;
#80 = FACE_OUTER_BOUND ( 'NONE', #72, .T. ) ;
#81 = PERSON_AND_ORGANIZATION_ROLE ( 'design_owner' ) ;
#82 = APPROVAL_ROLE ( '' ) ;
#83 = APPROVAL_ROLE ( '' ) ;
#84 = PERSON_AND_ORGANIZATION_ROLE ( 'design_supplier' ) ;
#85 = CC_DESIGN_PERSON_AND_ORGANIZATION_ASSIGNMENT ( #49, #84, ( #25 ) ) ;
#86 = LOCAL_TIME ( 10, 19, 32.00000000000000000, #112 ) ;
#87 = CARTESIAN_POINT ( 'NONE',  ( -25.39999999999999858, 1.021603022743526926E-14, -4.669996254120570178 ) ) ;
#88 = CARTESIAN_POINT ( 'NONE',  ( -25.39999999999999858, 3.110602869834280021E-15, 3.200000000000000178 ) ) ;
#89 = CARTESIAN_POINT ( 'NONE',  ( 25.39999999999999858, 5.392603844284260389E-30, -4.669996254120570178 ) ) ;
#90 = APPROVAL ( #9, 'UNSPECIFIED' ) ;
#91 = CARTESIAN_POINT ( 'NONE',  ( -25.39999999999971081, 25.39999999999997371, 3.200000000000001954 ) ) ;
#92 = CARTESIAN_POINT ( 'NONE',  ( -4.665904304751420031E-15, -25.39999999999999858, -4.669996254120570178 ) ) ;
#93 = CARTESIAN_POINT ( 'NONE',  ( -25.39999999999999858, 3.110602869834280021E-15, -4.669996254120570178 ) ) ;
#94 = DIRECTION ( 'NONE',  ( 1.000000000000000000, 0.0000000000000000000, 0.0000000000000000000 ) ) ;
#95 =( NAMED_UNIT ( * ) SI_UNIT ( $, .STERADIAN. ) SOLID_ANGLE_UNIT ( ) );
#96 = AXIS2_PLACEMENT_3D ( 'NONE', #17, #47, #3 ) ;
#97 = DIRECTION ( 'NONE',  ( 1.000000000000000000, 0.0000000000000000000, 0.0000000000000000000 ) ) ;
#98 = PERSON_AND_ORGANIZATION ( #99, #44 ) ;
#99 = PERSON ( 'UNSPECIFIED', 'UNSPECIFIED', 'UNSPECIFIED', ('UNSPECIFIED'), ('UNSPECIFIED'), ('UNSPECIFIED') ) ;
#100 = CARTESIAN_POINT ( 'NONE',  ( 0.0000000000000000000, 0.0000000000000000000, 0.0000000000000000000 ) ) ;
#101 = PRODUCT_DEFINITION ( 'UNKNOWN', '', #25, #167 ) ;
#102 = VERTEX_POINT ( 'NONE', #168 ) ;
#103 = ORIENTED_EDGE ( 'NONE', *, *, #8, .F. ) ;
#104 = CARTESIAN_POINT ( 'NONE',  ( 1.555301434917139813E-15, 25.39999999999999858, -4.669996254120570178 ) ) ;
#105 = VECTOR ( 'NONE', #170, 1000.000000000000000 ) ;
#106 = CYLINDRICAL_SURFACE ( 'NONE', #96, 25.39999999999999858 ) ;
#107 = CC_DESIGN_PERSON_AND_ORGANIZATION_ASSIGNMENT ( #109, #132, ( #73 ) ) ;
#108 = DIRECTION ( 'NONE',  ( 0.0000000000000000000, 1.000000000000000000, 3.886791151887538535E-16 ) ) ;
#109 = PERSON_AND_ORGANIZATION ( #99, #44 ) ;
#110 = MANIFOLD_SOLID_BREP ( '112-1512E.STP', #159 ) ;
#111 = ADVANCED_FACE ( 'NONE', ( #80 ), #106, .T. ) ;
#112 = COORDINATED_UNIVERSAL_TIME_OFFSET ( 2, 0, .AHEAD. ) ;
#113 = ADVANCED_BREP_SHAPE_REPRESENTATION ( '112-1512E UVFS pl-cv 50.8 F-150', ( #110, #119 ), #20 ) ;
#114 = ORIENTED_EDGE ( 'NONE', *, *, #126, .F. ) ;
#115 = ORIENTED_EDGE ( 'NONE', *, *, #79, .T. ) ;
#116 = ADVANCED_FACE ( 'NONE', ( #1 ), #141, .F. ) ;
#117 = CC_DESIGN_APPROVAL ( #90, ( #25 ) ) ;
#118 = LINE ( 'NONE', #89, #105 ) ;
#119 = AXIS2_PLACEMENT_3D ( 'NONE', #100, #37, #97 ) ;
#120 = APPROVAL ( #51, 'UNSPECIFIED' ) ;
#121 = PERSON_AND_ORGANIZATION ( #99, #44 ) ;
#122 = DATE_AND_TIME ( #171, #78 ) ;
#123 = CALENDAR_DATE ( 2019, 1, 10 ) ;
#124 = DATE_AND_TIME ( #35, #66 ) ;
#125 = ORIENTED_EDGE ( 'NONE', *, *, #8, .T. ) ;
#126 = EDGE_CURVE ( 'NONE', #102, #177, #178, .T. ) ;
#127 = CARTESIAN_POINT ( 'NONE',  ( 25.39999999999997371, -25.39999999999997371, -4.669996254120572843 ) ) ;
#128 = CARTESIAN_POINT ( 'NONE',  ( -25.39999999999999858, 3.110602869834280021E-15, 3.200000000000000178 ) ) ;
#129 = CC_DESIGN_APPROVAL ( #39, ( #73 ) ) ;
#130 = CARTESIAN_POINT ( 'NONE',  ( 1.555301434917139813E-15, 25.39999999999999858, 3.200000000000000178 ) ) ;
#131 = AXIS2_PLACEMENT_3D ( 'NONE', #46, #45, #108 ) ;
#132 = PERSON_AND_ORGANIZATION_ROLE ( 'classification_officer' ) ;
#133 = CALENDAR_DATE ( 2019, 1, 10 ) ;
#134 = DATE_TIME_ROLE ( 'creation_date' ) ;
#135 = COORDINATED_UNIVERSAL_TIME_OFFSET ( 2, 0, .AHEAD. ) ;
#136 = ORIENTED_EDGE ( 'NONE', *, *, #174, .F. ) ;
#137 = CC_DESIGN_SECURITY_CLASSIFICATION ( #73, ( #25 ) ) ;
#138 = APPROVAL_PERSON_ORGANIZATION ( #5, #120, #83 ) ;
#139 = DIRECTION ( 'NONE',  ( 0.0000000000000000000, 0.0000000000000000000, 1.000000000000000000 ) ) ;
#140 = CARTESIAN_POINT ( 'NONE',  ( -25.39999999999999858, 3.110602869834280021E-15, -4.669996254120570178 ) ) ;
#141 = SPHERICAL_SURFACE ( 'NONE', #131, 71.40999999999999659 ) ;
#142 = CC_DESIGN_PERSON_AND_ORGANIZATION_ASSIGNMENT ( #34, #70, ( #25 ) ) ;
#143 = APPROVAL_PERSON_ORGANIZATION ( #121, #90, #82 ) ;
#144 = MECHANICAL_CONTEXT ( 'NONE', #68, 'mechanical' ) ;
#145 = APPROVAL_STATUS ( 'not_yet_approved' ) ;
#146 = SHAPE_DEFINITION_REPRESENTATION ( #43, #113 ) ;
#147 = CC_DESIGN_PERSON_AND_ORGANIZATION_ASSIGNMENT ( #18, #81, ( #149 ) ) ;
#148 = ORIENTED_EDGE ( 'NONE', *, *, #156, .T. ) ;
#149 = PRODUCT ( '112-1512E UVFS pl-cv 50.8 F-150', '112-1512E UVFS pl-cv 50.8 F-150', '', ( #144 ) ) ;
#150 = CARTESIAN_POINT ( 'NONE',  ( 25.39999999999997371, -25.39999999999997371, 3.200000000000001510 ) ) ;
#151 = ADVANCED_FACE ( 'NONE', ( #64 ), #154, .T. ) ;
#152 = LOCAL_TIME ( 10, 19, 32.00000000000000000, #158 ) ;
#153 = CARTESIAN_POINT ( 'NONE',  ( 25.39999999999997371, 25.39999999999997371, 3.200000000000001510 ) ) ;
#154 = CYLINDRICAL_SURFACE ( 'NONE', #11, 25.39999999999999858 ) ;
#155 = CARTESIAN_POINT ( 'NONE',  ( 25.39999999999999858, 0.0000000000000000000, -4.669996254120570178 ) ) ;
#156 = EDGE_CURVE ( 'NONE', #177, #102, #57, .T. ) ;
#157 = DATE_AND_TIME ( #52, #86 ) ;
#158 = COORDINATED_UNIVERSAL_TIME_OFFSET ( 2, 0, .AHEAD. ) ;
#159 = CLOSED_SHELL ( 'NONE', ( #151, #116, #63, #111 ) ) ;
#160 = APPROVAL_DATE_TIME ( #40, #39 ) ;
#161 = ORIENTED_EDGE ( 'NONE', *, *, #174, .T. ) ;
#162 = ORIENTED_EDGE ( 'NONE', *, *, #79, .F. ) ;
#163 = LINE ( 'NONE', #87, #30 ) ;
#164 = CARTESIAN_POINT ( 'NONE',  ( 25.39999999999997371, 25.39999999999997371, -4.669996254120572843 ) ) ;
#165 = CC_DESIGN_APPROVAL ( #120, ( #101 ) ) ;
#166 = AXIS2_PLACEMENT_3D ( 'NONE', #32, #4, #94 ) ;
#167 = DESIGN_CONTEXT ( 'detailed design', #59, 'design' ) ;
#168 = CARTESIAN_POINT ( 'NONE',  ( 25.39999999999999858, 0.0000000000000000000, -4.669996254120570178 ) ) ;
#169 = CARTESIAN_POINT ( 'NONE',  ( -25.39999999999999858, 3.110602869834280021E-15, 3.200000000000000178 ) ) ;
#170 = DIRECTION ( 'NONE',  ( 0.0000000000000000000, 0.0000000000000000000, 1.000000000000000000 ) ) ;
#171 = CALENDAR_DATE ( 2019, 1, 10 ) ;
#172 = APPROVAL_DATE_TIME ( #157, #90 ) ;
#173 = DATE_AND_TIME ( #133, #152 ) ;
#174 = EDGE_CURVE ( 'NONE', #41, #54, #15, .T. ) ;
#175 = CC_DESIGN_DATE_AND_TIME_ASSIGNMENT ( #173, #134, ( #101 ) ) ;
#176 = PERSON_AND_ORGANIZATION ( #99, #44 ) ;
#177 = VERTEX_POINT ( 'NONE', #69 ) ;
#178 =( BOUNDED_CURVE ( )  B_SPLINE_CURVE ( 2, ( #155, #164, #104, #29, #93 ),
 .UNSPECIFIED., .F., .F. ) 
 B_SPLINE_CURVE_WITH_KNOTS ( ( 3, 2, 3 ),
 ( 0.0000000000000000000, 1.570796326794894116, 3.141592653589778905 ),
 .UNSPECIFIED. ) 
 CURVE ( )  GEOMETRIC_REPRESENTATION_ITEM ( )  RATIONAL_B_SPLINE_CURVE ( ( 1.000000000000000000, 0.7071067811865480168, 1.000000000000000000, 0.7071067811865501263, 0.9999999999999978906 ) ) 
 REPRESENTATION_ITEM ( '' )  );
#179 =( BOUNDED_CURVE ( )  B_SPLINE_CURVE ( 2, ( #88, #10, #42, #150, #26 ),
 .UNSPECIFIED., .F., .T. ) 
 B_SPLINE_CURVE_WITH_KNOTS ( ( 3, 2, 3 ),
 ( 3.141592653589778461, 4.712388980384684345, 6.283185307179590673 ),
 .UNSPECIFIED. ) 
 CURVE ( )  GEOMETRIC_REPRESENTATION_ITEM ( )  RATIONAL_B_SPLINE_CURVE ( ( 1.000000000000002220, 0.7071067811865459074, 1.000000000000000000, 0.7071067811865480168, 1.000000000000000000 ) ) 
 REPRESENTATION_ITEM ( '' )  );
ENDSEC;
END-ISO-10303-21;
