ISO-10303-21;
HEADER;
FILE_DESCRIPTION (( 'STEP AP203' ),
    '1' );
FILE_NAME ('112-1509E UVFS pl-cv 50.8 F-100.STEP',
    '2019-01-17T10:29:44',
    ( '' ),
    ( '' ),
    'SwSTEP 2.0',
    'SolidWorks 2017',
    '' );
FILE_SCHEMA (( 'CONFIG_CONTROL_DESIGN' ));
ENDSEC;

DATA;
#1 = PERSON_AND_ORGANIZATION_ROLE ( 'design_owner' ) ;
#2 = CIRCLE ( 'NONE', #94, 47.60999999999999200 ) ;
#3 = ADVANCED_FACE ( 'NONE', ( #201 ), #24, .F. ) ;
#4 = EDGE_LOOP ( 'NONE', ( #95, #108 ) ) ;
#5 = DIRECTION ( 'NONE',  ( 1.000000000000000000, 9.412420553253650200E-032, -3.084289765114799800E-016 ) ) ;
#6 = ORIENTED_EDGE ( 'NONE', *, *, #181, .T. ) ;
#7 = DATE_AND_TIME ( #220, #194 ) ;
#8 = DIRECTION ( 'NONE',  ( 1.000000000000000000, 0.0000000000000000000, 0.0000000000000000000 ) ) ;
#9 = ORIENTED_EDGE ( 'NONE', *, *, #166, .F. ) ;
#10 = PRODUCT ( '112-1509E UVFS pl-cv 50.8 F-100', '112-1509E UVFS pl-cv 50.8 F-100', '', ( #174 ) ) ;
#11 = CIRCLE ( 'NONE', #210, 25.39999999999999900 ) ;
#12 = LOCAL_TIME ( 12, 29, 44.00000000000000000, #139 ) ;
#13 = CARTESIAN_POINT ( 'NONE',  ( 21.50568639925854700, -25.67134469220903300, -13.76920192739928300 ) ) ;
#14 = APPROVAL_ROLE ( '' ) ;
#15 = APPROVAL_STATUS ( 'not_yet_approved' ) ;
#16 = APPROVAL_STATUS ( 'not_yet_approved' ) ;
#17 = MANIFOLD_SOLID_BREP ( 'Imported1', #208 ) ;
#18 = EDGE_LOOP ( 'NONE', ( #173, #128, #114 ) ) ;
#19 = EDGE_CURVE ( 'NONE', #159, #141, #11, .T. ) ;
#20 = ADVANCED_FACE ( 'NONE', ( #99 ), #109, .F. ) ;
#21 = ORIENTED_EDGE ( 'NONE', *, *, #181, .F. ) ;
#22 = PRODUCT_DEFINITION_SHAPE ( 'NONE', 'NONE',  #177 ) ;
#23 = CIRCLE ( 'NONE', #103, 25.39999999999999900 ) ;
#24 =( BOUNDED_SURFACE ( )  B_SPLINE_SURFACE ( 3, 3, ( 
 ( #105, #107, #227, #148 ),
 ( #29, #167, #31, #169 ),
 ( #50, #188, #228, #111 ),
 ( #170, #231, #52, #69 ) ),
 .UNSPECIFIED., .F., .F., .F. ) 
 B_SPLINE_SURFACE_WITH_KNOTS ( ( 4, 4 ),
 ( 4, 4 ),
 ( 0.0000000000000000000, 1.000000000000000000 ),
 ( 0.0000000000000000000, 1.000000000000000000 ),
 .UNSPECIFIED. ) 
 GEOMETRIC_REPRESENTATION_ITEM ( )  RATIONAL_B_SPLINE_SURFACE ( (
 ( 1.000000000000000000, 0.9734710037973446400, 0.9734710037973446400, 1.000000000000000000),
 ( 0.8947848725493156000, 0.8710471280632613400, 0.8710471280632613400, 0.8947848725493156000),
 ( 0.8947848725493156000, 0.8710471280632613400, 0.8710471280632613400, 0.8947848725493156000),
 ( 1.000000000000000000, 0.9734710037973446400, 0.9734710037973446400, 1.000000000000000000) ) ) 
 REPRESENTATION_ITEM ( '' )  SURFACE ( )  );
#25 = CARTESIAN_POINT ( 'NONE',  ( 25.39999999999999900, 4.884981308350691100E-015, -7.341499903770939600 ) ) ;
#26 = DIRECTION ( 'NONE',  ( 0.0000000000000000000, 0.0000000000000000000, 1.000000000000000000 ) ) ;
#27 = DIRECTION ( 'NONE',  ( 0.0000000000000000000, 0.0000000000000000000, 1.000000000000000000 ) ) ;
#28 = DATE_AND_TIME ( #78, #135 ) ;
#29 = CARTESIAN_POINT ( 'NONE',  ( -27.03715884851782300, 9.563320927658391900, -5.065018358257806800 ) ) ;
#30 = DIRECTION ( 'NONE',  ( 0.0000000000000000000, 0.0000000000000000000, 1.000000000000000000 ) ) ;
#31 = CARTESIAN_POINT ( 'NONE',  ( -9.641667130332894700, 9.563320927658388400, 2.799160095127207100 ) ) ;
#32 = CARTESIAN_POINT ( 'NONE',  ( 21.50568639925853300, 25.67134469220902900, -13.76920192739928700 ) ) ;
#33 = CYLINDRICAL_SURFACE ( 'NONE', #119, 25.39999999999999900 ) ;
#34 =( GEOMETRIC_REPRESENTATION_CONTEXT ( 3 ) GLOBAL_UNCERTAINTY_ASSIGNED_CONTEXT ( ( #162 ) ) GLOBAL_UNIT_ASSIGNED_CONTEXT ( ( #205, #234, #138 ) ) REPRESENTATION_CONTEXT ( 'NONE', 'WORKASPACE' ) );
#35 = LOCAL_TIME ( 12, 29, 44.00000000000000000, #230 ) ;
#36 = CARTESIAN_POINT ( 'NONE',  ( 7.669099805667827700, 25.67134469220902600, -7.513938326890631500 ) ) ;
#37 = DIRECTION ( 'NONE',  ( 0.0000000000000000000, 0.0000000000000000000, 1.000000000000000000 ) ) ;
#38 = APPROVAL_DATE_TIME ( #190, #133 ) ;
#39 = APPROVAL_ROLE ( '' ) ;
#40 = APPLICATION_PROTOCOL_DEFINITION ( 'international standard', 'config_control_design', 1994, #57 ) ;
#41 = CIRCLE ( 'NONE', #55, 25.39999999999999900 ) ;
#42 = SECURITY_CLASSIFICATION ( '', '', #132 ) ;
#43 = SHAPE_DEFINITION_REPRESENTATION ( #22, #89 ) ;
#44 = VECTOR ( 'NONE', #37, 1000.000000000000000 ) ;
#45 = COORDINATED_UNIVERSAL_TIME_OFFSET ( 2, 0, .AHEAD. ) ;
#46 = PRODUCT_DEFINITION_FORMATION_WITH_SPECIFIED_SOURCE ( 'ANY', '', #10, .NOT_KNOWN. ) ;
#47 = CARTESIAN_POINT ( 'NONE',  ( 9.992007221626412800E-016, 4.884981308350691100E-015, -7.341499903770939600 ) ) ;
#48 = CARTESIAN_POINT ( 'NONE',  ( 8.442218297342426700E-015, -9.563320927658386600, 2.799160095127211500 ) ) ;
#49 = CARTESIAN_POINT ( 'NONE',  ( -25.39999999999999900, 7.995584178184967200E-015, -7.341499903770939600 ) ) ;
#50 = CARTESIAN_POINT ( 'NONE',  ( -27.03715884851782600, -9.563320927658384800, -5.065018358257805900 ) ) ;
#51 = LINE ( 'NONE', #113, #44 ) ;
#52 = CARTESIAN_POINT ( 'NONE',  ( -7.669099805667849000, -25.67134469220904000, -7.513938326890627900 ) ) ;
#53 = ORIENTED_EDGE ( 'NONE', *, *, #202, .T. ) ;
#54 = CC_DESIGN_APPROVAL ( #133, ( #177 ) ) ;
#55 = AXIS2_PLACEMENT_3D ( 'NONE', #124, #26, #71 ) ;
#56 = ORIENTED_EDGE ( 'NONE', *, *, #90, .T. ) ;
#57 = APPLICATION_CONTEXT ( 'configuration controlled 3d designs of mechanical parts and assemblies' ) ;
#58 = APPROVAL ( #15, 'UNSPECIFIED' ) ;
#59 = DATE_AND_TIME ( #79, #12 ) ;
#60 = ADVANCED_FACE ( 'NONE', ( #171 ), #75, .T. ) ;
#61 = ORIENTED_EDGE ( 'NONE', *, *, #101, .F. ) ;
#62 = APPROVAL_PERSON_ORGANIZATION ( #180, #76, #14 ) ;
#63 = CC_DESIGN_PERSON_AND_ORGANIZATION_ASSIGNMENT ( #212, #156, ( #46 ) ) ;
#64 = CARTESIAN_POINT ( 'NONE',  ( 18.89965863463395800, 9.563320927658383000, 0.1063291761071276400 ) ) ;
#65 = CARTESIAN_POINT ( 'NONE',  ( -25.39999999999999900, 7.995584178184967200E-015, 4.999999999999999100 ) ) ;
#66 = CARTESIAN_POINT ( 'NONE',  ( 18.89965863463396900, -9.563320927658384800, 0.1063291761071320000 ) ) ;
#67 = LINE ( 'NONE', #197, #81 ) ;
#68 = AXIS2_PLACEMENT_3D ( 'NONE', #149, #30, #86 ) ;
#69 = CARTESIAN_POINT ( 'NONE',  ( -6.938893903907228400E-015, -25.67134469220903600, -7.513938326890627000 ) ) ;
#70 = CC_DESIGN_PERSON_AND_ORGANIZATION_ASSIGNMENT ( #222, #74, ( #46 ) ) ;
#71 = DIRECTION ( 'NONE',  ( 1.000000000000000000, 0.0000000000000000000, 0.0000000000000000000 ) ) ;
#72 = DIRECTION ( 'NONE',  ( 0.0000000000000000000, 0.0000000000000000000, 1.000000000000000000 ) ) ;
#73 = ORIENTED_EDGE ( 'NONE', *, *, #101, .T. ) ;
#74 = PERSON_AND_ORGANIZATION_ROLE ( 'creator' ) ;
#75 = CYLINDRICAL_SURFACE ( 'NONE', #80, 25.39999999999999900 ) ;
#76 = APPROVAL ( #16, 'UNSPECIFIED' ) ;
#77 = ADVANCED_FACE ( 'NONE', ( #102 ), #115, .T. ) ;
#78 = CALENDAR_DATE ( 2019, 17, 1 ) ;
#79 = CALENDAR_DATE ( 2019, 17, 1 ) ;
#80 = AXIS2_PLACEMENT_3D ( 'NONE', #125, #200, #8 ) ;
#81 = VECTOR ( 'NONE', #213, 1000.000000000000000 ) ;
#82 = CC_DESIGN_PERSON_AND_ORGANIZATION_ASSIGNMENT ( #136, #218, ( #42 ) ) ;
#83 = CARTESIAN_POINT ( 'NONE',  ( 5.314544912731358800E-015, 25.39999999999999100, -7.341499903770944100 ) ) ;
#84 = COORDINATED_UNIVERSAL_TIME_OFFSET ( 2, 0, .AHEAD. ) ;
#85 = DATE_AND_TIME ( #146, #35 ) ;
#86 = DIRECTION ( 'NONE',  ( 1.000000000000000000, 0.0000000000000000000, 0.0000000000000000000 ) ) ;
#87 = CARTESIAN_POINT ( 'NONE',  ( 25.39999999999999900, 4.884981308350691100E-015, 4.999999999999999100 ) ) ;
#88 = VERTEX_POINT ( 'NONE', #83 ) ;
#89 = ADVANCED_BREP_SHAPE_REPRESENTATION ( '112-1509E UVFS pl-cv 50.8 F-100', ( #17, #196 ), #34 ) ;
#90 = EDGE_CURVE ( 'NONE', #157, #198, #120, .T. ) ;
#91 = CALENDAR_DATE ( 2019, 17, 1 ) ;
#92 = DIRECTION ( 'NONE',  ( 1.000000000000000000, 0.0000000000000000000, 0.0000000000000000000 ) ) ;
#93 = CARTESIAN_POINT ( 'NONE',  ( 9.992007221626412800E-016, 4.884981308350691100E-015, -7.341499903770939600 ) ) ;
#94 = AXIS2_PLACEMENT_3D ( 'NONE', #123, #5, #183 ) ;
#95 = ORIENTED_EDGE ( 'NONE', *, *, #19, .F. ) ;
#96 = CARTESIAN_POINT ( 'NONE',  ( 9.992007221626412800E-016, 4.884981308350691100E-015, -7.341499903770939600 ) ) ;
#97 = CC_DESIGN_SECURITY_CLASSIFICATION ( #42, ( #46 ) ) ;
#98 = ORGANIZATION ( 'UNSPECIFIED', 'UNSPECIFIED', '' ) ;
#99 = FACE_OUTER_BOUND ( 'NONE', #18, .T. ) ;
#100 = APPROVAL_DATE_TIME ( #59, #76 ) ;
#101 = EDGE_CURVE ( 'NONE', #88, #157, #41, .T. ) ;
#102 = FACE_OUTER_BOUND ( 'NONE', #4, .T. ) ;
#103 = AXIS2_PLACEMENT_3D ( 'NONE', #96, #116, #191 ) ;
#104 = CARTESIAN_POINT ( 'NONE',  ( 27.03715884851777000, 9.563320927658383000, -5.065018358257789900 ) ) ;
#105 = CARTESIAN_POINT ( 'NONE',  ( -21.50568639925857200, 25.67134469220903600, -13.76920192739930500 ) ) ;
#106 = DIRECTION ( 'NONE',  ( 0.0000000000000000000, 0.0000000000000000000, 1.000000000000000000 ) ) ;
#107 = CARTESIAN_POINT ( 'NONE',  ( -15.03301933190216200, 25.67134469220904000, -9.655848932037217800 ) ) ;
#108 = ORIENTED_EDGE ( 'NONE', *, *, #178, .F. ) ;
#109 =( BOUNDED_SURFACE ( )  B_SPLINE_SURFACE ( 3, 3, ( 
 ( #129, #36, #152, #32 ),
 ( #126, #153, #64, #104 ),
 ( #48, #187, #66, #226 ),
 ( #147, #185, #214, #13 ) ),
 .UNSPECIFIED., .F., .F., .F. ) 
 B_SPLINE_SURFACE_WITH_KNOTS ( ( 4, 4 ),
 ( 4, 4 ),
 ( 0.0000000000000000000, 1.000000000000000000 ),
 ( 0.0000000000000000000, 1.000000000000000000 ),
 .UNSPECIFIED. ) 
 GEOMETRIC_REPRESENTATION_ITEM ( )  RATIONAL_B_SPLINE_SURFACE ( (
 ( 1.000000000000000000, 0.9734710037973447500, 0.9734710037973447500, 1.000000000000000000),
 ( 0.8947848725493156000, 0.8710471280632614600, 0.8710471280632614600, 0.8947848725493156000),
 ( 0.8947848725493156000, 0.8710471280632614600, 0.8710471280632614600, 0.8947848725493156000),
 ( 1.000000000000000000, 0.9734710037973447500, 0.9734710037973447500, 1.000000000000000000) ) ) 
 REPRESENTATION_ITEM ( '' )  SURFACE ( )  );
#110 = CARTESIAN_POINT ( 'NONE',  ( 9.992007221626412800E-016, 4.884981308350691100E-015, 4.999999999999999100 ) ) ;
#111 = CARTESIAN_POINT ( 'NONE',  ( -6.938893903907228400E-015, -9.563320927658386600, 2.799160095127210600 ) ) ;
#112 = PRODUCT_RELATED_PRODUCT_CATEGORY ( 'detail', '', ( #10 ) ) ;
#113 = CARTESIAN_POINT ( 'NONE',  ( 25.39999999999999900, 4.884981308350691100E-015, -7.341499903770939600 ) ) ;
#114 = ORIENTED_EDGE ( 'NONE', *, *, #202, .F. ) ;
#115 = PLANE ( 'NONE',  #175 ) ;
#116 = DIRECTION ( 'NONE',  ( 0.0000000000000000000, 0.0000000000000000000, 1.000000000000000000 ) ) ;
#117 = ORIENTED_EDGE ( 'NONE', *, *, #19, .T. ) ;
#118 = EDGE_CURVE ( 'NONE', #88, #198, #2, .T. ) ;
#119 = AXIS2_PLACEMENT_3D ( 'NONE', #47, #106, #182 ) ;
#120 = CIRCLE ( 'NONE', #68, 25.39999999999999900 ) ;
#121 = ORIENTED_EDGE ( 'NONE', *, *, #166, .T. ) ;
#122 = PERSON_AND_ORGANIZATION ( #130, #98 ) ;
#123 = CARTESIAN_POINT ( 'NONE',  ( -7.105427357601000300E-015, -1.065814103640150000E-014, -47.60999999999999900 ) ) ;
#124 = CARTESIAN_POINT ( 'NONE',  ( 9.992007221626412800E-016, 4.884981308350691100E-015, -7.341499903770939600 ) ) ;
#125 = CARTESIAN_POINT ( 'NONE',  ( 9.992007221626412800E-016, 4.884981308350691100E-015, -7.341499903770939600 ) ) ;
#126 = CARTESIAN_POINT ( 'NONE',  ( 8.442218297342423500E-015, 9.563320927658381300, 2.799160095127208400 ) ) ;
#127 = DIRECTION ( 'NONE',  ( 1.000000000000000000, 0.0000000000000000000, 0.0000000000000000000 ) ) ;
#128 = ORIENTED_EDGE ( 'NONE', *, *, #199, .F. ) ;
#129 = CARTESIAN_POINT ( 'NONE',  ( 5.261359906377302200E-015, 25.67134469220902600, -7.513938326890630600 ) ) ;
#130 = PERSON ( 'UNSPECIFIED', 'UNSPECIFIED', 'UNSPECIFIED', ('UNSPECIFIED'), ('UNSPECIFIED'), ('UNSPECIFIED') ) ;
#131 = CARTESIAN_POINT ( 'NONE',  ( 5.314544912731365100E-015, -25.39999999999999900, -7.341499903770940500 ) ) ;
#132 = SECURITY_CLASSIFICATION_LEVEL ( 'unclassified' ) ;
#133 = APPROVAL ( #193, 'UNSPECIFIED' ) ;
#134 = DATE_TIME_ROLE ( 'creation_date' ) ;
#135 = LOCAL_TIME ( 12, 29, 44.00000000000000000, #84 ) ;
#136 = PERSON_AND_ORGANIZATION ( #130, #98 ) ;
#137 = APPROVAL_ROLE ( '' ) ;
#138 =( NAMED_UNIT ( * ) SI_UNIT ( $, .STERADIAN. ) SOLID_ANGLE_UNIT ( ) );
#139 = COORDINATED_UNIVERSAL_TIME_OFFSET ( 2, 0, .AHEAD. ) ;
#140 = PERSON_AND_ORGANIZATION ( #130, #98 ) ;
#141 = VERTEX_POINT ( 'NONE', #65 ) ;
#142 = CARTESIAN_POINT ( 'NONE',  ( 9.992007221626412800E-016, 4.884981308350691100E-015, 4.999999999999999100 ) ) ;
#143 = DIRECTION ( 'NONE',  ( 1.000000000000000000, 0.0000000000000000000, 0.0000000000000000000 ) ) ;
#144 = LOCAL_TIME ( 12, 29, 44.00000000000000000, #184 ) ;
#145 = CC_DESIGN_APPROVAL ( #76, ( #42 ) ) ;
#146 = CALENDAR_DATE ( 2019, 17, 1 ) ;
#147 = CARTESIAN_POINT ( 'NONE',  ( 5.261359906377308500E-015, -25.67134469220903600, -7.513938326890623500 ) ) ;
#148 = CARTESIAN_POINT ( 'NONE',  ( -3.469446951953614200E-015, 25.67134469220903600, -7.513938326890635900 ) ) ;
#149 = CARTESIAN_POINT ( 'NONE',  ( 9.992007221626412800E-016, 4.884981308350691100E-015, -7.341499903770939600 ) ) ;
#150 = AXIS2_PLACEMENT_3D ( 'NONE', #142, #165, #143 ) ;
#151 = DESIGN_CONTEXT ( 'detailed design', #57, 'design' ) ;
#152 = CARTESIAN_POINT ( 'NONE',  ( 15.03301933190213200, 25.67134469220902900, -9.655848932037214300 ) ) ;
#153 = CARTESIAN_POINT ( 'NONE',  ( 9.641667130332882300, 9.563320927658383000, 2.799160095127206200 ) ) ;
#154 = CIRCLE ( 'NONE', #150, 25.39999999999999900 ) ;
#155 = APPLICATION_PROTOCOL_DEFINITION ( 'international standard', 'config_control_design', 1994, #216 ) ;
#156 = PERSON_AND_ORGANIZATION_ROLE ( 'design_supplier' ) ;
#157 = VERTEX_POINT ( 'NONE', #49 ) ;
#158 = APPROVAL_DATE_TIME ( #7, #58 ) ;
#159 = VERTEX_POINT ( 'NONE', #87 ) ;
#160 = AXIS2_PLACEMENT_3D ( 'NONE', #93, #206, #92 ) ;
#161 = VERTEX_POINT ( 'NONE', #25 ) ;
#162 = UNCERTAINTY_MEASURE_WITH_UNIT (LENGTH_MEASURE( 1.000000000000000100E-005 ), #205, 'distance_accuracy_value', 'NONE');
#163 = CC_DESIGN_PERSON_AND_ORGANIZATION_ASSIGNMENT ( #233, #1, ( #10 ) ) ;
#164 = ORIENTED_EDGE ( 'NONE', *, *, #178, .T. ) ;
#165 = DIRECTION ( 'NONE',  ( -0.0000000000000000000, -0.0000000000000000000, -1.000000000000000000 ) ) ;
#166 = EDGE_CURVE ( 'NONE', #161, #159, #51, .T. ) ;
#167 = CARTESIAN_POINT ( 'NONE',  ( -18.89965863463398300, 9.563320927658388400, 0.1063291761071267800 ) ) ;
#168 = EDGE_LOOP ( 'NONE', ( #61, #203, #215 ) ) ;
#169 = CARTESIAN_POINT ( 'NONE',  ( -3.469446951953614200E-015, 9.563320927658386600, 2.799160095127206600 ) ) ;
#170 = CARTESIAN_POINT ( 'NONE',  ( -21.50568639925858200, -25.67134469220903600, -13.76920192739929800 ) ) ;
#171 = FACE_OUTER_BOUND ( 'NONE', #207, .T. ) ;
#172 = CC_DESIGN_PERSON_AND_ORGANIZATION_ASSIGNMENT ( #140, #235, ( #177 ) ) ;
#173 = ORIENTED_EDGE ( 'NONE', *, *, #118, .F. ) ;
#174 = MECHANICAL_CONTEXT ( 'NONE', #216, 'mechanical' ) ;
#175 = AXIS2_PLACEMENT_3D ( 'NONE', #204, #27, #224 ) ;
#176 = CARTESIAN_POINT ( 'NONE',  ( 0.0000000000000000000, 0.0000000000000000000, 0.0000000000000000000 ) ) ;
#177 = PRODUCT_DEFINITION ( 'UNKNOWN', '', #46, #151 ) ;
#178 = EDGE_CURVE ( 'NONE', #141, #159, #154, .T. ) ;
#179 = ADVANCED_FACE ( 'NONE', ( #221 ), #33, .T. ) ;
#180 = PERSON_AND_ORGANIZATION ( #130, #98 ) ;
#181 = EDGE_CURVE ( 'NONE', #157, #141, #67, .T. ) ;
#182 = DIRECTION ( 'NONE',  ( 1.000000000000000000, 0.0000000000000000000, 0.0000000000000000000 ) ) ;
#183 = DIRECTION ( 'NONE',  ( 0.0000000000000000000, 1.000000000000000000, 2.914889268602070600E-016 ) ) ;
#184 = COORDINATED_UNIVERSAL_TIME_OFFSET ( 2, 0, .AHEAD. ) ;
#185 = CARTESIAN_POINT ( 'NONE',  ( 7.669099805667832100, -25.67134469220903300, -7.513938326890626100 ) ) ;
#186 = APPROVAL_PERSON_ORGANIZATION ( #122, #58, #39 ) ;
#187 = CARTESIAN_POINT ( 'NONE',  ( 9.641667130332882300, -9.563320927658384800, 2.799160095127209300 ) ) ;
#188 = CARTESIAN_POINT ( 'NONE',  ( -18.89965863463399000, -9.563320927658386600, 0.1063291761071285000 ) ) ;
#189 = CC_DESIGN_DATE_AND_TIME_ASSIGNMENT ( #28, #134, ( #177 ) ) ;
#190 = DATE_AND_TIME ( #91, #144 ) ;
#191 = DIRECTION ( 'NONE',  ( 1.000000000000000000, 0.0000000000000000000, 0.0000000000000000000 ) ) ;
#192 = ORIENTED_EDGE ( 'NONE', *, *, #199, .T. ) ;
#193 = APPROVAL_STATUS ( 'not_yet_approved' ) ;
#194 = LOCAL_TIME ( 12, 29, 44.00000000000000000, #45 ) ;
#195 = PERSON_AND_ORGANIZATION ( #130, #98 ) ;
#196 = AXIS2_PLACEMENT_3D ( 'NONE', #176, #72, #232 ) ;
#197 = CARTESIAN_POINT ( 'NONE',  ( -25.39999999999999900, 7.995584178184967200E-015, -7.341499903770939600 ) ) ;
#198 = VERTEX_POINT ( 'NONE', #131 ) ;
#199 = EDGE_CURVE ( 'NONE', #161, #88, #219, .T. ) ;
#200 = DIRECTION ( 'NONE',  ( 0.0000000000000000000, 0.0000000000000000000, 1.000000000000000000 ) ) ;
#201 = FACE_OUTER_BOUND ( 'NONE', #168, .T. ) ;
#202 = EDGE_CURVE ( 'NONE', #198, #161, #23, .T. ) ;
#203 = ORIENTED_EDGE ( 'NONE', *, *, #118, .T. ) ;
#204 = CARTESIAN_POINT ( 'NONE',  ( 0.0000000000000000000, 52.02000000000000300, 5.000000000000000000 ) ) ;
#205 =( LENGTH_UNIT ( ) NAMED_UNIT ( * ) SI_UNIT ( .MILLI., .METRE. ) );
#206 = DIRECTION ( 'NONE',  ( 0.0000000000000000000, 0.0000000000000000000, 1.000000000000000000 ) ) ;
#207 = EDGE_LOOP ( 'NONE', ( #21, #56, #53, #121, #117 ) ) ;
#208 = CLOSED_SHELL ( 'NONE', ( #3, #179, #20, #60, #77 ) ) ;
#209 = CC_DESIGN_APPROVAL ( #58, ( #46 ) ) ;
#210 = AXIS2_PLACEMENT_3D ( 'NONE', #110, #229, #127 ) ;
#211 = EDGE_LOOP ( 'NONE', ( #192, #73, #6, #164, #9 ) ) ;
#212 = PERSON_AND_ORGANIZATION ( #130, #98 ) ;
#213 = DIRECTION ( 'NONE',  ( 0.0000000000000000000, 0.0000000000000000000, 1.000000000000000000 ) ) ;
#214 = CARTESIAN_POINT ( 'NONE',  ( 15.03301933190214300, -25.67134469220903300, -9.655848932037209000 ) ) ;
#215 = ORIENTED_EDGE ( 'NONE', *, *, #90, .F. ) ;
#216 = APPLICATION_CONTEXT ( 'configuration controlled 3d designs of mechanical parts and assemblies' ) ;
#217 = DATE_TIME_ROLE ( 'classification_date' ) ;
#218 = PERSON_AND_ORGANIZATION_ROLE ( 'classification_officer' ) ;
#219 = CIRCLE ( 'NONE', #160, 25.39999999999999900 ) ;
#220 = CALENDAR_DATE ( 2019, 17, 1 ) ;
#221 = FACE_OUTER_BOUND ( 'NONE', #211, .T. ) ;
#222 = PERSON_AND_ORGANIZATION ( #130, #98 ) ;
#223 = CC_DESIGN_DATE_AND_TIME_ASSIGNMENT ( #85, #217, ( #42 ) ) ;
#224 = DIRECTION ( 'NONE',  ( 1.000000000000000000, 0.0000000000000000000, -0.0000000000000000000 ) ) ;
#225 = APPROVAL_PERSON_ORGANIZATION ( #195, #133, #137 ) ;
#226 = CARTESIAN_POINT ( 'NONE',  ( 27.03715884851778400, -9.563320927658384800, -5.065018358257787200 ) ) ;
#227 = CARTESIAN_POINT ( 'NONE',  ( -7.669099805667841900, 25.67134469220904000, -7.513938326890634100 ) ) ;
#228 = CARTESIAN_POINT ( 'NONE',  ( -9.641667130332894700, -9.563320927658388400, 2.799160095127210200 ) ) ;
#229 = DIRECTION ( 'NONE',  ( -0.0000000000000000000, -0.0000000000000000000, -1.000000000000000000 ) ) ;
#230 = COORDINATED_UNIVERSAL_TIME_OFFSET ( 2, 0, .AHEAD. ) ;
#231 = CARTESIAN_POINT ( 'NONE',  ( -15.03301933190217300, -25.67134469220904000, -9.655848932037210700 ) ) ;
#232 = DIRECTION ( 'NONE',  ( 1.000000000000000000, 0.0000000000000000000, 0.0000000000000000000 ) ) ;
#233 = PERSON_AND_ORGANIZATION ( #130, #98 ) ;
#234 =( NAMED_UNIT ( * ) PLANE_ANGLE_UNIT ( ) SI_UNIT ( $, .RADIAN. ) );
#235 = PERSON_AND_ORGANIZATION_ROLE ( 'creator' ) ;
ENDSEC;
END-ISO-10303-21;
