ISO-10303-21;
HEADER;
FILE_DESCRIPTION (( 'STEP AP203' ),
    '1' );
FILE_NAME ('112-1427E UVFS pl-cv 38.1 F-300.STEP',
    '2019-01-17T09:01:24',
    ( '' ),
    ( '' ),
    'SwSTEP 2.0',
    'SolidWorks 2017',
    '' );
FILE_SCHEMA (( 'CONFIG_CONTROL_DESIGN' ));
ENDSEC;

DATA;
#1 = PERSON_AND_ORGANIZATION ( #38, #170 ) ;
#2 = PRODUCT ( '112-1427E UVFS pl-cv 38.1 F-300', '112-1427E UVFS pl-cv 38.1 F-300', '', ( #105 ) ) ;
#3 = APPROVAL_ROLE ( '' ) ;
#4 = FACE_OUTER_BOUND ( 'NONE', #65, .T. ) ;
#5 =( NAMED_UNIT ( * ) SI_UNIT ( $, .STERADIAN. ) SOLID_ANGLE_UNIT ( ) );
#6 = AXIS2_PLACEMENT_3D ( 'NONE', #136, #155, #17 ) ;
#7 = EDGE_LOOP ( 'NONE', ( #59, #232, #48 ) ) ;
#8 = SECURITY_CLASSIFICATION ( '', '', #161 ) ;
#9 = FACE_OUTER_BOUND ( 'NONE', #227, .T. ) ;
#10 = CARTESIAN_POINT ( 'NONE',  ( 18.98819399149930500, 19.27720950375851300, -2.587027409410563200 ) ) ;
#11 = ADVANCED_FACE ( 'NONE', ( #46 ), #100, .F. ) ;
#12 = EDGE_CURVE ( 'NONE', #92, #143, #51, .T. ) ;
#13 = ORIENTED_EDGE ( 'NONE', *, *, #67, .F. ) ;
#14 = CARTESIAN_POINT ( 'NONE',  ( 6.353349174452207900, -19.27720950375850600, -1.307140838315816700 ) ) ;
#15 = ORIENTED_EDGE ( 'NONE', *, *, #175, .T. ) ;
#16 = CC_DESIGN_APPROVAL ( #82, ( #116 ) ) ;
#17 = DIRECTION ( 'NONE',  ( 1.000000000000000000, 0.0000000000000000000, 0.0000000000000000000 ) ) ;
#18 = APPROVAL_STATUS ( 'not_yet_approved' ) ;
#19 = CC_DESIGN_PERSON_AND_ORGANIZATION_ASSIGNMENT ( #229, #93, ( #8 ) ) ;
#20 = APPROVAL_PERSON_ORGANIZATION ( #99, #82, #3 ) ;
#21 = SHAPE_DEFINITION_REPRESENTATION ( #186, #214 ) ;
#22 = AXIS2_PLACEMENT_3D ( 'NONE', #101, #68, #190 ) ;
#23 = CC_DESIGN_DATE_AND_TIME_ASSIGNMENT ( #148, #57, ( #116 ) ) ;
#24 = CARTESIAN_POINT ( 'NONE',  ( -2.945876729701585800E-014, 6.465189879962292900, 0.4383888507263701800 ) ) ;
#25 = CIRCLE ( 'NONE', #22, 19.05000000000000100 ) ;
#26 = CARTESIAN_POINT ( 'NONE',  ( -18.98819399149930100, -19.27720950375850300, -2.587027409410552500 ) ) ;
#27 = DIRECTION ( 'NONE',  ( 1.000000000000000000, 0.0000000000000000000, -0.0000000000000000000 ) ) ;
#28 = DIRECTION ( 'NONE',  ( 1.000000000000000000, 0.0000000000000000000, 0.0000000000000000000 ) ) ;
#29 = CARTESIAN_POINT ( 'NONE',  ( 19.04999999999999700, -8.881784197001250400E-016, -1.276371230808240000 ) ) ;
#30 = APPROVAL ( #179, 'UNSPECIFIED' ) ;
#31 = PLANE ( 'NONE',  #40 ) ;
#32 = CIRCLE ( 'NONE', #6, 19.05000000000000100 ) ;
#33 = DIRECTION ( 'NONE',  ( -0.0000000000000000000, -0.0000000000000000000, -1.000000000000000000 ) ) ;
#34 = LOCAL_TIME ( 11, 1, 24.00000000000000000, #121 ) ;
#35 = DIRECTION ( 'NONE',  ( 1.000000000000000000, 0.0000000000000000000, 0.0000000000000000000 ) ) ;
#36 = CYLINDRICAL_SURFACE ( 'NONE', #156, 19.05000000000000100 ) ;
#37 = COORDINATED_UNIVERSAL_TIME_OFFSET ( 2, 0, .AHEAD. ) ;
#38 = PERSON ( 'UNSPECIFIED', 'UNSPECIFIED', 'UNSPECIFIED', ('UNSPECIFIED'), ('UNSPECIFIED'), ('UNSPECIFIED') ) ;
#39 = PERSON_AND_ORGANIZATION_ROLE ( 'creator' ) ;
#40 = AXIS2_PLACEMENT_3D ( 'NONE', #49, #169, #27 ) ;
#41 = DATE_AND_TIME ( #118, #34 ) ;
#42 = DIRECTION ( 'NONE',  ( 1.000000000000000000, 0.0000000000000000000, 0.0000000000000000000 ) ) ;
#43 = CALENDAR_DATE ( 2019, 17, 1 ) ;
#44 = AXIS2_PLACEMENT_3D ( 'NONE', #135, #195, #42 ) ;
#45 = CARTESIAN_POINT ( 'NONE',  ( -12.69231461685208000, -19.27720950375850600, -1.734414582622054700 ) ) ;
#46 = FACE_OUTER_BOUND ( 'NONE', #117, .T. ) ;
#47 = CARTESIAN_POINT ( 'NONE',  ( 18.98819399149930500, -19.27720950375850300, -2.587027409410563200 ) ) ;
#48 = ORIENTED_EDGE ( 'NONE', *, *, #217, .F. ) ;
#49 = CARTESIAN_POINT ( 'NONE',  ( 0.0000000000000000000, 39.06600000000000300, 4.299999999999999800 ) ) ;
#50 = CARTESIAN_POINT ( 'NONE',  ( -4.662936703425659800E-015, -8.881784197001250400E-016, 4.299999999999999800 ) ) ;
#51 = CIRCLE ( 'NONE', #132, 142.7999999999999800 ) ;
#52 = CARTESIAN_POINT ( 'NONE',  ( -4.662936703425659800E-015, -8.881784197001250400E-016, -1.276371230808240000 ) ) ;
#53 = EDGE_CURVE ( 'NONE', #103, #112, #94, .T. ) ;
#54 = APPROVAL_ROLE ( '' ) ;
#55 = CC_DESIGN_SECURITY_CLASSIFICATION ( #8, ( #150 ) ) ;
#56 = CIRCLE ( 'NONE', #162, 19.05000000000000100 ) ;
#57 = DATE_TIME_ROLE ( 'creation_date' ) ;
#58 = ADVANCED_FACE ( 'NONE', ( #183 ), #200, .F. ) ;
#59 = ORIENTED_EDGE ( 'NONE', *, *, #12, .F. ) ;
#60 = UNCERTAINTY_MEASURE_WITH_UNIT (LENGTH_MEASURE( 1.000000000000000100E-005 ), #154, 'distance_accuracy_value', 'NONE');
#61 = CARTESIAN_POINT ( 'NONE',  ( -19.22244225356587000, -6.465189879962283100, -0.8572870684788492800 ) ) ;
#62 = CARTESIAN_POINT ( 'NONE',  ( -6.353349174452267400, 19.27720950375851700, -1.307140838315811800 ) ) ;
#63 = CC_DESIGN_PERSON_AND_ORGANIZATION_ASSIGNMENT ( #203, #159, ( #150 ) ) ;
#64 = CARTESIAN_POINT ( 'NONE',  ( -6.245004513516505500E-014, 19.27720950375851300, -1.307140838315808700 ) ) ;
#65 = EDGE_LOOP ( 'NONE', ( #198, #180 ) ) ;
#66 = CARTESIAN_POINT ( 'NONE',  ( -19.05000000000000400, 1.444773732675583000E-015, -1.276371230808240000 ) ) ;
#67 = EDGE_CURVE ( 'NONE', #92, #89, #212, .T. ) ;
#68 = DIRECTION ( 'NONE',  ( 0.0000000000000000000, 0.0000000000000000000, 1.000000000000000000 ) ) ;
#69 = DIRECTION ( 'NONE',  ( 0.0000000000000000000, 0.0000000000000000000, 1.000000000000000000 ) ) ;
#70 = COORDINATED_UNIVERSAL_TIME_OFFSET ( 2, 0, .AHEAD. ) ;
#71 = CYLINDRICAL_SURFACE ( 'NONE', #182, 19.05000000000000100 ) ;
#72 = DESIGN_CONTEXT ( 'detailed design', #91, 'design' ) ;
#73 = APPROVAL_ROLE ( '' ) ;
#74 = CLOSED_SHELL ( 'NONE', ( #11, #205, #58, #221, #126 ) ) ;
#75 = LOCAL_TIME ( 11, 1, 24.00000000000000000, #84 ) ;
#76 = LOCAL_TIME ( 11, 1, 24.00000000000000000, #220 ) ;
#77 = CARTESIAN_POINT ( 'NONE',  ( -12.84889362810142700, 6.465189879962293800, 0.005844034717621105500 ) ) ;
#78 = CARTESIAN_POINT ( 'NONE',  ( -2.909977727114287700E-014, 19.27720950375851300, -1.307140838315817800 ) ) ;
#79 = CARTESIAN_POINT ( 'NONE',  ( -4.662936703425659800E-015, -8.881784197001250400E-016, 4.299999999999999800 ) ) ;
#80 = CARTESIAN_POINT ( 'NONE',  ( -2.945876729701586500E-014, -6.465189879962283100, 0.4383888507263744000 ) ) ;
#81 = EDGE_LOOP ( 'NONE', ( #134, #147, #207, #137, #122 ) ) ;
#82 = APPROVAL ( #139, 'UNSPECIFIED' ) ;
#83 = CARTESIAN_POINT ( 'NONE',  ( -2.910610542600875900E-014, -19.04999999999982300, -1.276371230808236000 ) ) ;
#84 = COORDINATED_UNIVERSAL_TIME_OFFSET ( 2, 0, .AHEAD. ) ;
#85 = CARTESIAN_POINT ( 'NONE',  ( -4.662936703425659800E-015, -8.881784197001250400E-016, -1.276371230808240000 ) ) ;
#86 =( NAMED_UNIT ( * ) PLANE_ANGLE_UNIT ( ) SI_UNIT ( $, .RADIAN. ) );
#87 = DATE_AND_TIME ( #43, #76 ) ;
#88 =( GEOMETRIC_REPRESENTATION_CONTEXT ( 3 ) GLOBAL_UNCERTAINTY_ASSIGNED_CONTEXT ( ( #60 ) ) GLOBAL_UNIT_ASSIGNED_CONTEXT ( ( #154, #86, #5 ) ) REPRESENTATION_CONTEXT ( 'NONE', 'WORKASPACE' ) );
#89 = VERTEX_POINT ( 'NONE', #66 ) ;
#90 = APPLICATION_PROTOCOL_DEFINITION ( 'international standard', 'config_control_design', 1994, #91 ) ;
#91 = APPLICATION_CONTEXT ( 'configuration controlled 3d designs of mechanical parts and assemblies' ) ;
#92 = VERTEX_POINT ( 'NONE', #223 ) ;
#93 = PERSON_AND_ORGANIZATION_ROLE ( 'classification_officer' ) ;
#94 = CIRCLE ( 'NONE', #224, 19.05000000000000100 ) ;
#95 = CARTESIAN_POINT ( 'NONE',  ( -12.69231461685208000, 19.27720950375851700, -1.734414582622054700 ) ) ;
#96 = VECTOR ( 'NONE', #69, 1000.000000000000000 ) ;
#97 = CARTESIAN_POINT ( 'NONE',  ( -19.22244225356587000, 6.465189879962292900, -0.8572870684788536100 ) ) ;
#98 = DIRECTION ( 'NONE',  ( 0.0000000000000000000, 0.0000000000000000000, 1.000000000000000000 ) ) ;
#99 = PERSON_AND_ORGANIZATION ( #38, #170 ) ;
#100 =( BOUNDED_SURFACE ( )  B_SPLINE_SURFACE ( 3, 3, ( 
 ( #202, #95, #62, #64 ),
 ( #97, #77, #129, #228 ),
 ( #61, #189, #130, #184 ),
 ( #26, #45, #125, #146 ) ),
 .UNSPECIFIED., .F., .F., .F. ) 
 B_SPLINE_SURFACE_WITH_KNOTS ( ( 4, 4 ),
 ( 4, 4 ),
 ( 0.0000000000000000000, 1.000000000000000000 ),
 ( 0.0000000000000000000, 1.000000000000000000 ),
 .UNSPECIFIED. ) 
 GEOMETRIC_REPRESENTATION_ITEM ( )  RATIONAL_B_SPLINE_SURFACE ( (
 ( 1.000000000000000000, 0.9984906929497666700, 0.9984906929497666700, 1.000000000000000000),
 ( 0.9938975684485723500, 0.9923974718413031100, 0.9923974718413031100, 0.9938975684485723500),
 ( 0.9938975684485723500, 0.9923974718413031100, 0.9923974718413031100, 0.9938975684485723500),
 ( 1.000000000000000000, 0.9984906929497666700, 0.9984906929497666700, 1.000000000000000000) ) ) 
 REPRESENTATION_ITEM ( '' )  SURFACE ( )  );
#101 = CARTESIAN_POINT ( 'NONE',  ( -4.662936703425659800E-015, -8.881784197001250400E-016, -1.276371230808240000 ) ) ;
#102 = LINE ( 'NONE', #173, #166 ) ;
#103 = VERTEX_POINT ( 'NONE', #234 ) ;
#104 = PERSON_AND_ORGANIZATION ( #38, #170 ) ;
#105 = MECHANICAL_CONTEXT ( 'NONE', #106, 'mechanical' ) ;
#106 = APPLICATION_CONTEXT ( 'configuration controlled 3d designs of mechanical parts and assemblies' ) ;
#107 = VERTEX_POINT ( 'NONE', #149 ) ;
#108 = APPLICATION_PROTOCOL_DEFINITION ( 'international standard', 'config_control_design', 1994, #106 ) ;
#109 = APPROVAL_PERSON_ORGANIZATION ( #104, #163, #73 ) ;
#110 = DIRECTION ( 'NONE',  ( 1.000000000000000000, 0.0000000000000000000, 2.056625150099659900E-016 ) ) ;
#111 = CARTESIAN_POINT ( 'NONE',  ( 12.69231461685205200, 19.27720950375851700, -1.734414582622060900 ) ) ;
#112 = VERTEX_POINT ( 'NONE', #168 ) ;
#113 = APPROVAL_PERSON_ORGANIZATION ( #1, #30, #54 ) ;
#114 = APPROVAL_DATE_TIME ( #171, #163 ) ;
#115 = CARTESIAN_POINT ( 'NONE',  ( 19.22244225356587700, -6.465189879962283100, -0.8572870684788602700 ) ) ;
#116 = PRODUCT_DEFINITION ( 'UNKNOWN', '', #150, #72 ) ;
#117 = EDGE_LOOP ( 'NONE', ( #13, #120, #177 ) ) ;
#118 = CALENDAR_DATE ( 2019, 17, 1 ) ;
#119 = CIRCLE ( 'NONE', #219, 19.05000000000000100 ) ;
#120 = ORIENTED_EDGE ( 'NONE', *, *, #12, .T. ) ;
#121 = COORDINATED_UNIVERSAL_TIME_OFFSET ( 2, 0, .AHEAD. ) ;
#122 = ORIENTED_EDGE ( 'NONE', *, *, #53, .T. ) ;
#123 = CC_DESIGN_PERSON_AND_ORGANIZATION_ASSIGNMENT ( #164, #158, ( #2 ) ) ;
#124 = CALENDAR_DATE ( 2019, 17, 1 ) ;
#125 = CARTESIAN_POINT ( 'NONE',  ( -6.353349174452267400, -19.27720950375850600, -1.307140838315811800 ) ) ;
#126 = ADVANCED_FACE ( 'NONE', ( #4 ), #31, .T. ) ;
#127 = PERSON_AND_ORGANIZATION ( #38, #170 ) ;
#128 = CC_DESIGN_DATE_AND_TIME_ASSIGNMENT ( #41, #160, ( #8 ) ) ;
#129 = CARTESIAN_POINT ( 'NONE',  ( -6.431727402686286500, 6.465189879962293800, 0.4383888507263766200 ) ) ;
#130 = CARTESIAN_POINT ( 'NONE',  ( -6.431727402686286500, -6.465189879962283100, 0.4383888507263806200 ) ) ;
#131 = CARTESIAN_POINT ( 'NONE',  ( 6.431727402686224300, -6.465189879962283100, 0.4383888507263756800 ) ) ;
#132 = AXIS2_PLACEMENT_3D ( 'NONE', #204, #110, #144 ) ;
#133 = CARTESIAN_POINT ( 'NONE',  ( -2.909977727114287700E-014, -19.27720950375850300, -1.307140838315817800 ) ) ;
#134 = ORIENTED_EDGE ( 'NONE', *, *, #197, .F. ) ;
#135 = CARTESIAN_POINT ( 'NONE',  ( 0.0000000000000000000, 0.0000000000000000000, 0.0000000000000000000 ) ) ;
#136 = CARTESIAN_POINT ( 'NONE',  ( -4.662936703425659800E-015, -8.881784197001250400E-016, -1.276371230808240000 ) ) ;
#137 = ORIENTED_EDGE ( 'NONE', *, *, #194, .T. ) ;
#138 = CC_DESIGN_PERSON_AND_ORGANIZATION_ASSIGNMENT ( #178, #39, ( #116 ) ) ;
#139 = APPROVAL_STATUS ( 'not_yet_approved' ) ;
#140 = DATE_AND_TIME ( #152, #75 ) ;
#141 = ORIENTED_EDGE ( 'NONE', *, *, #194, .F. ) ;
#142 = CC_DESIGN_APPROVAL ( #30, ( #8 ) ) ;
#143 = VERTEX_POINT ( 'NONE', #83 ) ;
#144 = DIRECTION ( 'NONE',  ( 0.0000000000000000000, 1.000000000000000000, 0.0000000000000000000 ) ) ;
#145 = CARTESIAN_POINT ( 'NONE',  ( 6.431727402686224300, 6.465189879962293800, 0.4383888507263716300 ) ) ;
#146 = CARTESIAN_POINT ( 'NONE',  ( -6.245004513516505500E-014, -19.27720950375850300, -1.307140838315808700 ) ) ;
#147 = ORIENTED_EDGE ( 'NONE', *, *, #181, .T. ) ;
#148 = DATE_AND_TIME ( #213, #208 ) ;
#149 = CARTESIAN_POINT ( 'NONE',  ( 19.04999999999999700, -8.881784197001250400E-016, -1.276371230808240000 ) ) ;
#150 = PRODUCT_DEFINITION_FORMATION_WITH_SPECIFIED_SOURCE ( 'ANY', '', #2, .NOT_KNOWN. ) ;
#151 = DIRECTION ( 'NONE',  ( 0.0000000000000000000, 0.0000000000000000000, 1.000000000000000000 ) ) ;
#152 = CALENDAR_DATE ( 2019, 17, 1 ) ;
#153 = CARTESIAN_POINT ( 'NONE',  ( 12.84889362810140200, -6.465189879962283100, 0.005844034717619155600 ) ) ;
#154 =( LENGTH_UNIT ( ) NAMED_UNIT ( * ) SI_UNIT ( .MILLI., .METRE. ) );
#155 = DIRECTION ( 'NONE',  ( 0.0000000000000000000, 0.0000000000000000000, 1.000000000000000000 ) ) ;
#156 = AXIS2_PLACEMENT_3D ( 'NONE', #52, #176, #35 ) ;
#157 = AXIS2_PLACEMENT_3D ( 'NONE', #231, #174, #28 ) ;
#158 = PERSON_AND_ORGANIZATION_ROLE ( 'design_owner' ) ;
#159 = PERSON_AND_ORGANIZATION_ROLE ( 'creator' ) ;
#160 = DATE_TIME_ROLE ( 'classification_date' ) ;
#161 = SECURITY_CLASSIFICATION_LEVEL ( 'unclassified' ) ;
#162 = AXIS2_PLACEMENT_3D ( 'NONE', #210, #98, #230 ) ;
#163 = APPROVAL ( #18, 'UNSPECIFIED' ) ;
#164 = PERSON_AND_ORGANIZATION ( #38, #170 ) ;
#165 = CARTESIAN_POINT ( 'NONE',  ( 12.84889362810140200, 6.465189879962293800, 0.005844034717615035700 ) ) ;
#166 = VECTOR ( 'NONE', #151, 1000.000000000000000 ) ;
#167 = LOCAL_TIME ( 11, 1, 24.00000000000000000, #37 ) ;
#168 = CARTESIAN_POINT ( 'NONE',  ( -19.05000000000000400, 1.444773732675583000E-015, 4.299999999999999800 ) ) ;
#169 = DIRECTION ( 'NONE',  ( 0.0000000000000000000, 0.0000000000000000000, 1.000000000000000000 ) ) ;
#170 = ORGANIZATION ( 'UNSPECIFIED', 'UNSPECIFIED', '' ) ;
#171 = DATE_AND_TIME ( #124, #167 ) ;
#172 = MANIFOLD_SOLID_BREP ( 'Imported1', #74 ) ;
#173 = CARTESIAN_POINT ( 'NONE',  ( -19.05000000000000400, 1.444773732675583000E-015, -1.276371230808240000 ) ) ;
#174 = DIRECTION ( 'NONE',  ( 0.0000000000000000000, 0.0000000000000000000, 1.000000000000000000 ) ) ;
#175 = EDGE_CURVE ( 'NONE', #107, #92, #25, .T. ) ;
#176 = DIRECTION ( 'NONE',  ( 0.0000000000000000000, 0.0000000000000000000, 1.000000000000000000 ) ) ;
#177 = ORIENTED_EDGE ( 'NONE', *, *, #181, .F. ) ;
#178 = PERSON_AND_ORGANIZATION ( #38, #170 ) ;
#179 = APPROVAL_STATUS ( 'not_yet_approved' ) ;
#180 = ORIENTED_EDGE ( 'NONE', *, *, #222, .F. ) ;
#181 = EDGE_CURVE ( 'NONE', #89, #143, #56, .T. ) ;
#182 = AXIS2_PLACEMENT_3D ( 'NONE', #85, #211, #235 ) ;
#183 = FACE_OUTER_BOUND ( 'NONE', #7, .T. ) ;
#184 = CARTESIAN_POINT ( 'NONE',  ( -6.245004513516505500E-014, -6.465189879962283100, 0.4383888507263835100 ) ) ;
#185 = CARTESIAN_POINT ( 'NONE',  ( 6.353349174452207900, 19.27720950375851700, -1.307140838315816700 ) ) ;
#186 = PRODUCT_DEFINITION_SHAPE ( 'NONE', 'NONE',  #116 ) ;
#187 = FACE_OUTER_BOUND ( 'NONE', #81, .T. ) ;
#188 = CARTESIAN_POINT ( 'NONE',  ( 19.22244225356587700, 6.465189879962292900, -0.8572870684788643800 ) ) ;
#189 = CARTESIAN_POINT ( 'NONE',  ( -12.84889362810142700, -6.465189879962283100, 0.005844034717625225400 ) ) ;
#190 = DIRECTION ( 'NONE',  ( 1.000000000000000000, 0.0000000000000000000, 0.0000000000000000000 ) ) ;
#191 = CC_DESIGN_APPROVAL ( #163, ( #150 ) ) ;
#192 = LINE ( 'NONE', #29, #96 ) ;
#193 = DIRECTION ( 'NONE',  ( 1.000000000000000000, 0.0000000000000000000, 0.0000000000000000000 ) ) ;
#194 = EDGE_CURVE ( 'NONE', #107, #103, #192, .T. ) ;
#195 = DIRECTION ( 'NONE',  ( 0.0000000000000000000, 0.0000000000000000000, 1.000000000000000000 ) ) ;
#196 = ORIENTED_EDGE ( 'NONE', *, *, #67, .T. ) ;
#197 = EDGE_CURVE ( 'NONE', #89, #112, #102, .T. ) ;
#198 = ORIENTED_EDGE ( 'NONE', *, *, #53, .F. ) ;
#199 = ORIENTED_EDGE ( 'NONE', *, *, #222, .T. ) ;
#200 =( BOUNDED_SURFACE ( )  B_SPLINE_SURFACE ( 3, 3, ( 
 ( #78, #185, #111, #10 ),
 ( #24, #145, #165, #188 ),
 ( #80, #131, #153, #115 ),
 ( #133, #14, #209, #47 ) ),
 .UNSPECIFIED., .F., .F., .F. ) 
 B_SPLINE_SURFACE_WITH_KNOTS ( ( 4, 4 ),
 ( 4, 4 ),
 ( 0.0000000000000000000, 1.000000000000000000 ),
 ( 0.0000000000000000000, 1.000000000000000000 ),
 .UNSPECIFIED. ) 
 GEOMETRIC_REPRESENTATION_ITEM ( )  RATIONAL_B_SPLINE_SURFACE ( (
 ( 1.000000000000000000, 0.9984906929497666700, 0.9984906929497666700, 1.000000000000000000),
 ( 0.9938975684485723500, 0.9923974718413031100, 0.9923974718413031100, 0.9938975684485723500),
 ( 0.9938975684485723500, 0.9923974718413031100, 0.9923974718413031100, 0.9938975684485723500),
 ( 1.000000000000000000, 0.9984906929497666700, 0.9984906929497666700, 1.000000000000000000) ) ) 
 REPRESENTATION_ITEM ( '' )  SURFACE ( )  );
#201 = CC_DESIGN_PERSON_AND_ORGANIZATION_ASSIGNMENT ( #127, #216, ( #150 ) ) ;
#202 = CARTESIAN_POINT ( 'NONE',  ( -18.98819399149930100, 19.27720950375851300, -2.587027409410552500 ) ) ;
#203 = PERSON_AND_ORGANIZATION ( #38, #170 ) ;
#204 = CARTESIAN_POINT ( 'NONE',  ( 0.0000000000000000000, 2.842170943040400100E-014, -142.8000000000000100 ) ) ;
#205 = ADVANCED_FACE ( 'NONE', ( #9 ), #71, .T. ) ;
#206 = DIRECTION ( 'NONE',  ( -0.0000000000000000000, -0.0000000000000000000, -1.000000000000000000 ) ) ;
#207 = ORIENTED_EDGE ( 'NONE', *, *, #217, .T. ) ;
#208 = LOCAL_TIME ( 11, 1, 24.00000000000000000, #70 ) ;
#209 = CARTESIAN_POINT ( 'NONE',  ( 12.69231461685205200, -19.27720950375850600, -1.734414582622060900 ) ) ;
#210 = CARTESIAN_POINT ( 'NONE',  ( -4.662936703425659800E-015, -8.881784197001250400E-016, -1.276371230808240000 ) ) ;
#211 = DIRECTION ( 'NONE',  ( 0.0000000000000000000, 0.0000000000000000000, 1.000000000000000000 ) ) ;
#212 = CIRCLE ( 'NONE', #157, 19.05000000000000100 ) ;
#213 = CALENDAR_DATE ( 2019, 17, 1 ) ;
#214 = ADVANCED_BREP_SHAPE_REPRESENTATION ( '112-1427E UVFS pl-cv 38.1 F-300', ( #172, #44 ), #88 ) ;
#215 = PRODUCT_RELATED_PRODUCT_CATEGORY ( 'detail', '', ( #2 ) ) ;
#216 = PERSON_AND_ORGANIZATION_ROLE ( 'design_supplier' ) ;
#217 = EDGE_CURVE ( 'NONE', #143, #107, #32, .T. ) ;
#218 = ORIENTED_EDGE ( 'NONE', *, *, #197, .T. ) ;
#219 = AXIS2_PLACEMENT_3D ( 'NONE', #50, #33, #193 ) ;
#220 = COORDINATED_UNIVERSAL_TIME_OFFSET ( 2, 0, .AHEAD. ) ;
#221 = ADVANCED_FACE ( 'NONE', ( #187 ), #36, .T. ) ;
#222 = EDGE_CURVE ( 'NONE', #112, #103, #119, .T. ) ;
#223 = CARTESIAN_POINT ( 'NONE',  ( -2.910610542600875900E-014, 19.04999999999985100, -1.276371230808236000 ) ) ;
#224 = AXIS2_PLACEMENT_3D ( 'NONE', #79, #206, #225 ) ;
#225 = DIRECTION ( 'NONE',  ( 1.000000000000000000, 0.0000000000000000000, 0.0000000000000000000 ) ) ;
#226 = APPROVAL_DATE_TIME ( #140, #30 ) ;
#227 = EDGE_LOOP ( 'NONE', ( #15, #196, #218, #199, #141 ) ) ;
#228 = CARTESIAN_POINT ( 'NONE',  ( -6.245004513516505500E-014, 6.465189879962292900, 0.4383888507263794000 ) ) ;
#229 = PERSON_AND_ORGANIZATION ( #38, #170 ) ;
#230 = DIRECTION ( 'NONE',  ( 1.000000000000000000, 0.0000000000000000000, 0.0000000000000000000 ) ) ;
#231 = CARTESIAN_POINT ( 'NONE',  ( -4.662936703425659800E-015, -8.881784197001250400E-016, -1.276371230808240000 ) ) ;
#232 = ORIENTED_EDGE ( 'NONE', *, *, #175, .F. ) ;
#233 = APPROVAL_DATE_TIME ( #87, #82 ) ;
#234 = CARTESIAN_POINT ( 'NONE',  ( 19.04999999999999700, -8.881784197001250400E-016, 4.299999999999999800 ) ) ;
#235 = DIRECTION ( 'NONE',  ( 1.000000000000000000, 0.0000000000000000000, 0.0000000000000000000 ) ) ;
ENDSEC;
END-ISO-10303-21;
