ISO-10303-21;
HEADER;
FILE_DESCRIPTION (( 'STEP AP203' ),
    '1' );
FILE_NAME ('112-1419E UVFS pl-cv 38.1 F-200.STEP',
    '2019-01-17T08:55:50',
    ( '' ),
    ( '' ),
    'SwSTEP 2.0',
    'SolidWorks 2017',
    '' );
FILE_SCHEMA (( 'CONFIG_CONTROL_DESIGN' ));
ENDSEC;

DATA;
#1 = ADVANCED_BREP_SHAPE_REPRESENTATION ( '112-1419E UVFS pl-cv 38.1 F-200', ( #116, #208 ), #70 ) ;
#2 = COORDINATED_UNIVERSAL_TIME_OFFSET ( 2, 0, .AHEAD. ) ;
#3 = EDGE_CURVE ( 'NONE', #63, #139, #97, .T. ) ;
#4 = CC_DESIGN_PERSON_AND_ORGANIZATION_ASSIGNMENT ( #29, #168, ( #184 ) ) ;
#5 = ADVANCED_FACE ( 'NONE', ( #52 ), #79, .T. ) ;
#6 = CARTESIAN_POINT ( 'NONE',  ( 12.58589774009166500, 19.27544356164156600, -2.609775044145518800 ) ) ;
#7 = ORIENTED_EDGE ( 'NONE', *, *, #105, .T. ) ;
#8 = DIRECTION ( 'NONE',  ( 1.000000000000000000, 0.0000000000000000000, 2.276539994720219300E-017 ) ) ;
#9 = COORDINATED_UNIVERSAL_TIME_OFFSET ( 2, 0, .AHEAD. ) ;
#10 = CARTESIAN_POINT ( 'NONE',  ( 19.29686001365002600, 6.515089922226674300, -1.295600232457996700 ) ) ;
#11 = EDGE_CURVE ( 'NONE', #63, #164, #14, .T. ) ;
#12 = ORIENTED_EDGE ( 'NONE', *, *, #45, .T. ) ;
#13 = CARTESIAN_POINT ( 'NONE',  ( 19.04999999999999700, -8.881784197001250400E-016, 3.000000000000001300 ) ) ;
#14 = CIRCLE ( 'NONE', #22, 95.20999999999999400 ) ;
#15 = CARTESIAN_POINT ( 'NONE',  ( -5.551115123125782700E-014, 6.515089922226675200, 0.6663958964045589900 ) ) ;
#16 = CALENDAR_DATE ( 2019, 17, 1 ) ;
#17 = CC_DESIGN_DATE_AND_TIME_ASSIGNMENT ( #20, #74, ( #184 ) ) ;
#18 = CARTESIAN_POINT ( 'NONE',  ( -6.309128964994192400, 19.27544356164156600, -1.971588518990886200 ) ) ;
#19 = APPROVAL_STATUS ( 'not_yet_approved' ) ;
#20 = DATE_AND_TIME ( #68, #169 ) ;
#21 = PERSON ( 'UNSPECIFIED', 'UNSPECIFIED', 'UNSPECIFIED', ('UNSPECIFIED'), ('UNSPECIFIED'), ('UNSPECIFIED') ) ;
#22 = AXIS2_PLACEMENT_3D ( 'NONE', #178, #211, #82 ) ;
#23 = ORIENTED_EDGE ( 'NONE', *, *, #24, .F. ) ;
#24 = EDGE_CURVE ( 'NONE', #60, #63, #185, .T. ) ;
#25 = SECURITY_CLASSIFICATION ( '', '', #187 ) ;
#26 = FACE_OUTER_BOUND ( 'NONE', #91, .T. ) ;
#27 = CARTESIAN_POINT ( 'NONE',  ( -4.662936703425659800E-015, -8.881784197001250400E-016, -1.925265986336220500 ) ) ;
#28 = DIRECTION ( 'NONE',  ( 1.000000000000000000, 0.0000000000000000000, 2.276539994720219300E-017 ) ) ;
#29 = PERSON_AND_ORGANIZATION ( #21, #197 ) ;
#30 = CARTESIAN_POINT ( 'NONE',  ( -3.667959189293149900E-014, 6.515089922226675200, 0.6663958964045528800 ) ) ;
#31 = LOCAL_TIME ( 10, 55, 50.00000000000000000, #40 ) ;
#32 = CIRCLE ( 'NONE', #120, 19.05000000000000100 ) ;
#33 = DIRECTION ( 'NONE',  ( 1.000000000000000000, 0.0000000000000000000, 0.0000000000000000000 ) ) ;
#34 = CARTESIAN_POINT ( 'NONE',  ( -5.551115123125782700E-014, -6.515089922226662700, 0.6663958964045401100 ) ) ;
#35 = AXIS2_PLACEMENT_3D ( 'NONE', #186, #234, #36 ) ;
#36 = DIRECTION ( 'NONE',  ( 1.000000000000000000, 0.0000000000000000000, 1.138269997360109700E-017 ) ) ;
#37 = ORIENTED_EDGE ( 'NONE', *, *, #96, .F. ) ;
#38 = LINE ( 'NONE', #215, #222 ) ;
#39 = CARTESIAN_POINT ( 'NONE',  ( -4.662936703425659800E-015, -8.881784197001250400E-016, -1.925265986336220500 ) ) ;
#40 = COORDINATED_UNIVERSAL_TIME_OFFSET ( 2, 0, .AHEAD. ) ;
#41 = EDGE_CURVE ( 'NONE', #103, #143, #140, .T. ) ;
#42 = APPROVAL_ROLE ( '' ) ;
#43 = CC_DESIGN_APPROVAL ( #113, ( #25 ) ) ;
#44 = ORIENTED_EDGE ( 'NONE', *, *, #41, .F. ) ;
#45 = EDGE_CURVE ( 'NONE', #143, #103, #87, .T. ) ;
#46 = EDGE_LOOP ( 'NONE', ( #191, #95, #196, #86, #210 ) ) ;
#47 = ADVANCED_FACE ( 'NONE', ( #26 ), #156, .F. ) ;
#48 = VECTOR ( 'NONE', #163, 1000.000000000000000 ) ;
#49 = CARTESIAN_POINT ( 'NONE',  ( -4.662936703425659800E-015, -8.881784197001250400E-016, -1.925265986336220500 ) ) ;
#50 = APPROVAL_DATE_TIME ( #188, #113 ) ;
#51 = DIRECTION ( 'NONE',  ( 1.000000000000000000, 0.0000000000000000000, 1.138269997360109700E-017 ) ) ;
#52 = FACE_OUTER_BOUND ( 'NONE', #111, .T. ) ;
#53 = PERSON_AND_ORGANIZATION ( #21, #197 ) ;
#54 = CARTESIAN_POINT ( 'NONE',  ( -12.58589774009170300, 19.27544356164156600, -2.609775044145516500 ) ) ;
#55 = CARTESIAN_POINT ( 'NONE',  ( -5.551115123125782700E-014, 19.27544356164156600, -1.971588518990882600 ) ) ;
#56 = CARTESIAN_POINT ( 'NONE',  ( -3.588016431512666000E-014, -19.05000000000000100, -1.925265986336218500 ) ) ;
#57 = CC_DESIGN_SECURITY_CLASSIFICATION ( #25, ( #190 ) ) ;
#58 = APPROVAL_ROLE ( '' ) ;
#59 = DATE_TIME_ROLE ( 'classification_date' ) ;
#60 = VERTEX_POINT ( 'NONE', #78 ) ;
#61 = EDGE_CURVE ( 'NONE', #139, #103, #224, .T. ) ;
#62 = CC_DESIGN_PERSON_AND_ORGANIZATION_ASSIGNMENT ( #125, #219, ( #190 ) ) ;
#63 = VERTEX_POINT ( 'NONE', #159 ) ;
#64 = CARTESIAN_POINT ( 'NONE',  ( -3.586587560319069700E-014, 19.27544356164156600, -1.971588518990888200 ) ) ;
#65 = DIRECTION ( 'NONE',  ( 1.000000000000000000, 0.0000000000000000000, -0.0000000000000000000 ) ) ;
#66 = APPROVAL_PERSON_ORGANIZATION ( #115, #113, #42 ) ;
#67 = PRODUCT_RELATED_PRODUCT_CATEGORY ( 'detail', '', ( #205 ) ) ;
#68 = CALENDAR_DATE ( 2019, 17, 1 ) ;
#69 = PERSON_AND_ORGANIZATION_ROLE ( 'design_owner' ) ;
#70 =( GEOMETRIC_REPRESENTATION_CONTEXT ( 3 ) GLOBAL_UNCERTAINTY_ASSIGNED_CONTEXT ( ( #94 ) ) GLOBAL_UNIT_ASSIGNED_CONTEXT ( ( #93, #148, #72 ) ) REPRESENTATION_CONTEXT ( 'NONE', 'WORKASPACE' ) );
#71 = CARTESIAN_POINT ( 'NONE',  ( -12.94198920030372700, -6.515089922226662700, 0.01015322807101709200 ) ) ;
#72 =( NAMED_UNIT ( * ) SI_UNIT ( $, .STERADIAN. ) SOLID_ANGLE_UNIT ( ) );
#73 = APPROVAL_ROLE ( '' ) ;
#74 = DATE_TIME_ROLE ( 'creation_date' ) ;
#75 = CALENDAR_DATE ( 2019, 17, 1 ) ;
#76 = DATE_AND_TIME ( #177, #133 ) ;
#77 = APPROVAL_PERSON_ORGANIZATION ( #83, #155, #58 ) ;
#78 = CARTESIAN_POINT ( 'NONE',  ( 19.04999999999999700, -8.881784197001250400E-016, -1.925265986336220300 ) ) ;
#79 = PLANE ( 'NONE',  #80 ) ;
#80 = AXIS2_PLACEMENT_3D ( 'NONE', #84, #227, #65 ) ;
#81 = CARTESIAN_POINT ( 'NONE',  ( 6.309128964994129300, -19.27544356164155200, -1.971588518990900600 ) ) ;
#82 = DIRECTION ( 'NONE',  ( 0.0000000000000000000, 1.000000000000000000, -2.915195422290611700E-016 ) ) ;
#83 = PERSON_AND_ORGANIZATION ( #21, #197 ) ;
#84 = CARTESIAN_POINT ( 'NONE',  ( 0.0000000000000000000, 39.06600000000000300, 3.000000000000000000 ) ) ;
#85 = CARTESIAN_POINT ( 'NONE',  ( 12.94198920030369500, 6.515089922226674300, 0.01015322807103205400 ) ) ;
#86 = ORIENTED_EDGE ( 'NONE', *, *, #41, .T. ) ;
#87 = CIRCLE ( 'NONE', #129, 19.05000000000000100 ) ;
#88 = APPLICATION_PROTOCOL_DEFINITION ( 'international standard', 'config_control_design', 1994, #151 ) ;
#89 = APPLICATION_PROTOCOL_DEFINITION ( 'international standard', 'config_control_design', 1994, #199 ) ;
#90 = DIRECTION ( 'NONE',  ( -1.165588477296749900E-017, -5.434385993627839900E-034, 1.000000000000000000 ) ) ;
#91 = EDGE_LOOP ( 'NONE', ( #122, #23, #37 ) ) ;
#92 = CARTESIAN_POINT ( 'NONE',  ( -12.58589774009169900, -19.27544356164155200, -2.609775044145531200 ) ) ;
#93 =( LENGTH_UNIT ( ) NAMED_UNIT ( * ) SI_UNIT ( .MILLI., .METRE. ) );
#94 = UNCERTAINTY_MEASURE_WITH_UNIT (LENGTH_MEASURE( 1.000000000000000100E-005 ), #93, 'distance_accuracy_value', 'NONE');
#95 = ORIENTED_EDGE ( 'NONE', *, *, #3, .T. ) ;
#96 = EDGE_CURVE ( 'NONE', #164, #60, #136, .T. ) ;
#97 = CIRCLE ( 'NONE', #119, 19.05000000000000100 ) ;
#98 = CARTESIAN_POINT ( 'NONE',  ( -3.586587560319069000E-014, -19.27544356164155200, -1.971588518990902200 ) ) ;
#99 = DIRECTION ( 'NONE',  ( 1.165588477296749900E-017, 5.434385993627839900E-034, -1.000000000000000000 ) ) ;
#100 = CARTESIAN_POINT ( 'NONE',  ( 6.309128964994130200, 19.27544356164156600, -1.971588518990886600 ) ) ;
#101 = DIRECTION ( 'NONE',  ( 1.165588477296749900E-017, 5.434385993627839900E-034, -1.000000000000000000 ) ) ;
#102 = CC_DESIGN_PERSON_AND_ORGANIZATION_ASSIGNMENT ( #135, #112, ( #25 ) ) ;
#103 = VERTEX_POINT ( 'NONE', #132 ) ;
#104 = MECHANICAL_CONTEXT ( 'NONE', #151, 'mechanical' ) ;
#105 = EDGE_CURVE ( 'NONE', #60, #143, #38, .T. ) ;
#106 = CLOSED_SHELL ( 'NONE', ( #225, #117, #47, #160, #5 ) ) ;
#107 = CARTESIAN_POINT ( 'NONE',  ( -18.76591790317396800, 19.27544356164156600, -3.879601442053765200 ) ) ;
#108 = FACE_OUTER_BOUND ( 'NONE', #157, .T. ) ;
#109 = DIRECTION ( 'NONE',  ( -1.165588477296749900E-017, -5.434385993627839900E-034, 1.000000000000000000 ) ) ;
#110 = CARTESIAN_POINT ( 'NONE',  ( -19.29686001365002900, -6.515089922226662700, -1.295600232458004900 ) ) ;
#111 = EDGE_LOOP ( 'NONE', ( #137, #44 ) ) ;
#112 = PERSON_AND_ORGANIZATION_ROLE ( 'classification_officer' ) ;
#113 = APPROVAL ( #153, 'UNSPECIFIED' ) ;
#114 = ORIENTED_EDGE ( 'NONE', *, *, #176, .T. ) ;
#115 = PERSON_AND_ORGANIZATION ( #21, #197 ) ;
#116 = MANIFOLD_SOLID_BREP ( 'Imported1', #106 ) ;
#117 = ADVANCED_FACE ( 'NONE', ( #171 ), #207, .T. ) ;
#118 = DIRECTION ( 'NONE',  ( -1.165588477296749900E-017, -5.434385993627839900E-034, 1.000000000000000000 ) ) ;
#119 = AXIS2_PLACEMENT_3D ( 'NONE', #49, #123, #51 ) ;
#120 = AXIS2_PLACEMENT_3D ( 'NONE', #39, #232, #127 ) ;
#121 = PRODUCT_DEFINITION_SHAPE ( 'NONE', 'NONE',  #184 ) ;
#122 = ORIENTED_EDGE ( 'NONE', *, *, #11, .F. ) ;
#123 = DIRECTION ( 'NONE',  ( -1.165588477296749900E-017, -5.434385993627839900E-034, 1.000000000000000000 ) ) ;
#124 = APPROVAL_DATE_TIME ( #76, #217 ) ;
#125 = PERSON_AND_ORGANIZATION ( #21, #197 ) ;
#126 = CARTESIAN_POINT ( 'NONE',  ( 19.29686001365002200, -6.515089922226663600, -1.295600232458014000 ) ) ;
#127 = DIRECTION ( 'NONE',  ( 1.000000000000000000, 0.0000000000000000000, 1.138269997360109700E-017 ) ) ;
#128 = FACE_OUTER_BOUND ( 'NONE', #230, .T. ) ;
#129 = AXIS2_PLACEMENT_3D ( 'NONE', #141, #99, #28 ) ;
#130 = CARTESIAN_POINT ( 'NONE',  ( -12.94198920030373000, 6.515089922226676900, 0.01015322807103552100 ) ) ;
#131 = LOCAL_TIME ( 10, 55, 50.00000000000000000, #2 ) ;
#132 = CARTESIAN_POINT ( 'NONE',  ( -19.05000000000000400, 1.444773732675583000E-015, 3.000000000000000400 ) ) ;
#133 = LOCAL_TIME ( 10, 55, 50.00000000000000000, #189 ) ;
#134 = APPROVAL_STATUS ( 'not_yet_approved' ) ;
#135 = PERSON_AND_ORGANIZATION ( #21, #197 ) ;
#136 = CIRCLE ( 'NONE', #161, 19.05000000000000100 ) ;
#137 = ORIENTED_EDGE ( 'NONE', *, *, #45, .F. ) ;
#138 = CARTESIAN_POINT ( 'NONE',  ( -19.05000000000000400, 1.444773732675583000E-015, -1.925265986336220500 ) ) ;
#139 = VERTEX_POINT ( 'NONE', #214 ) ;
#140 = CIRCLE ( 'NONE', #194, 19.05000000000000100 ) ;
#141 = CARTESIAN_POINT ( 'NONE',  ( -4.720345036238611400E-015, -8.881784197001250400E-016, 3.000000000000000900 ) ) ;
#142 = CARTESIAN_POINT ( 'NONE',  ( -3.667959189293149300E-014, -6.515089922226662700, 0.6663958964045351200 ) ) ;
#143 = VERTEX_POINT ( 'NONE', #13 ) ;
#144 = CARTESIAN_POINT ( 'NONE',  ( 12.58589774009166000, -19.27544356164155200, -2.609775044145533000 ) ) ;
#145 = CARTESIAN_POINT ( 'NONE',  ( 0.0000000000000000000, 0.0000000000000000000, 0.0000000000000000000 ) ) ;
#146 = CARTESIAN_POINT ( 'NONE',  ( -6.309128964994191500, -19.27544356164155200, -1.971588518990900600 ) ) ;
#147 = DESIGN_CONTEXT ( 'detailed design', #199, 'design' ) ;
#148 =( NAMED_UNIT ( * ) PLANE_ANGLE_UNIT ( ) SI_UNIT ( $, .RADIAN. ) );
#149 = AXIS2_PLACEMENT_3D ( 'NONE', #27, #118, #209 ) ;
#150 = CARTESIAN_POINT ( 'NONE',  ( -19.29686001365003300, 6.515089922226675200, -1.295600232457986700 ) ) ;
#151 = APPLICATION_CONTEXT ( 'configuration controlled 3d designs of mechanical parts and assemblies' ) ;
#152 = ORIENTED_EDGE ( 'NONE', *, *, #61, .F. ) ;
#153 = APPROVAL_STATUS ( 'not_yet_approved' ) ;
#154 = PERSON_AND_ORGANIZATION ( #21, #197 ) ;
#155 = APPROVAL ( #19, 'UNSPECIFIED' ) ;
#156 =( BOUNDED_SURFACE ( )  B_SPLINE_SURFACE ( 3, 3, ( 
 ( #64, #100, #6, #162 ),
 ( #30, #195, #85, #10 ),
 ( #142, #229, #181, #126 ),
 ( #98, #81, #144, #220 ) ),
 .UNSPECIFIED., .F., .F., .F. ) 
 B_SPLINE_SURFACE_WITH_KNOTS ( ( 4, 4 ),
 ( 4, 4 ),
 ( 0.0000000000000000000, 1.000000000000000000 ),
 ( 0.0000000000000000000, 1.000000000000000000 ),
 .UNSPECIFIED. ) 
 GEOMETRIC_REPRESENTATION_ITEM ( )  RATIONAL_B_SPLINE_SURFACE ( (
 ( 1.000000000000000000, 0.9965805961408006300, 0.9965805961408006300, 1.000000000000000000),
 ( 0.9861948078353750500, 0.9828226095035403900, 0.9828226095035403900, 0.9861948078353750500),
 ( 0.9861948078353750500, 0.9828226095035403900, 0.9828226095035403900, 0.9861948078353750500),
 ( 1.000000000000000000, 0.9965805961408006300, 0.9965805961408006300, 1.000000000000000000) ) ) 
 REPRESENTATION_ITEM ( '' )  SURFACE ( )  );
#157 = EDGE_LOOP ( 'NONE', ( #170, #166, #206 ) ) ;
#158 = CALENDAR_DATE ( 2019, 17, 1 ) ;
#159 = CARTESIAN_POINT ( 'NONE',  ( -3.588016431512666000E-014, 19.04999999999999400, -1.925265986336218500 ) ) ;
#160 = ADVANCED_FACE ( 'NONE', ( #128 ), #213, .T. ) ;
#161 = AXIS2_PLACEMENT_3D ( 'NONE', #201, #90, #165 ) ;
#162 = CARTESIAN_POINT ( 'NONE',  ( 18.76591790317396000, 19.27544356164156600, -3.879601442053774600 ) ) ;
#163 = DIRECTION ( 'NONE',  ( -1.165588477296749900E-017, -5.434385993627839900E-034, 1.000000000000000000 ) ) ;
#164 = VERTEX_POINT ( 'NONE', #56 ) ;
#165 = DIRECTION ( 'NONE',  ( 1.000000000000000000, 0.0000000000000000000, 1.138269997360109700E-017 ) ) ;
#166 = ORIENTED_EDGE ( 'NONE', *, *, #11, .T. ) ;
#167 = LOCAL_TIME ( 10, 55, 50.00000000000000000, #9 ) ;
#168 = PERSON_AND_ORGANIZATION_ROLE ( 'creator' ) ;
#169 = LOCAL_TIME ( 10, 55, 50.00000000000000000, #174 ) ;
#170 = ORIENTED_EDGE ( 'NONE', *, *, #3, .F. ) ;
#171 = FACE_OUTER_BOUND ( 'NONE', #46, .T. ) ;
#172 = CC_DESIGN_PERSON_AND_ORGANIZATION_ASSIGNMENT ( #154, #69, ( #205 ) ) ;
#173 = DATE_AND_TIME ( #158, #167 ) ;
#174 = COORDINATED_UNIVERSAL_TIME_OFFSET ( 2, 0, .AHEAD. ) ;
#175 = DATE_AND_TIME ( #75, #31 ) ;
#176 = EDGE_CURVE ( 'NONE', #139, #164, #32, .T. ) ;
#177 = CALENDAR_DATE ( 2019, 17, 1 ) ;
#178 = CARTESIAN_POINT ( 'NONE',  ( -7.105427357601000300E-015, -7.105427357601000300E-015, -95.20999999999999400 ) ) ;
#179 = PERSON_AND_ORGANIZATION ( #21, #197 ) ;
#180 = CC_DESIGN_DATE_AND_TIME_ASSIGNMENT ( #173, #59, ( #25 ) ) ;
#181 = CARTESIAN_POINT ( 'NONE',  ( 12.94198920030369300, -6.515089922226665400, 0.01015322807101449000 ) ) ;
#182 = DIRECTION ( 'NONE',  ( 0.0000000000000000000, 0.0000000000000000000, 1.000000000000000000 ) ) ;
#183 = CARTESIAN_POINT ( 'NONE',  ( -6.487632476798063800, 6.515089922226676900, 0.6663958964045555400 ) ) ;
#184 = PRODUCT_DEFINITION ( 'UNKNOWN', '', #190, #147 ) ;
#185 = CIRCLE ( 'NONE', #149, 19.05000000000000100 ) ;
#186 = CARTESIAN_POINT ( 'NONE',  ( -4.662936703425659800E-015, -8.881784197001250400E-016, -1.925265986336220300 ) ) ;
#187 = SECURITY_CLASSIFICATION_LEVEL ( 'unclassified' ) ;
#188 = DATE_AND_TIME ( #16, #131 ) ;
#189 = COORDINATED_UNIVERSAL_TIME_OFFSET ( 2, 0, .AHEAD. ) ;
#190 = PRODUCT_DEFINITION_FORMATION_WITH_SPECIFIED_SOURCE ( 'ANY', '', #205, .NOT_KNOWN. ) ;
#191 = ORIENTED_EDGE ( 'NONE', *, *, #24, .T. ) ;
#192 = ORIENTED_EDGE ( 'NONE', *, *, #96, .T. ) ;
#193 = APPROVAL_PERSON_ORGANIZATION ( #53, #217, #73 ) ;
#194 = AXIS2_PLACEMENT_3D ( 'NONE', #226, #101, #8 ) ;
#195 = CARTESIAN_POINT ( 'NONE',  ( 6.487632476798003400, 6.515089922226675200, 0.6663958964045546600 ) ) ;
#196 = ORIENTED_EDGE ( 'NONE', *, *, #61, .T. ) ;
#197 = ORGANIZATION ( 'UNSPECIFIED', 'UNSPECIFIED', '' ) ;
#198 = CARTESIAN_POINT ( 'NONE',  ( -6.487632476798062000, -6.515089922226662700, 0.6663958964045368900 ) ) ;
#199 = APPLICATION_CONTEXT ( 'configuration controlled 3d designs of mechanical parts and assemblies' ) ;
#200 = CC_DESIGN_APPROVAL ( #155, ( #190 ) ) ;
#201 = CARTESIAN_POINT ( 'NONE',  ( -4.662936703425659800E-015, -8.881784197001250400E-016, -1.925265986336220500 ) ) ;
#202 = CARTESIAN_POINT ( 'NONE',  ( -18.76591790317396400, -19.27544356164155200, -3.879601442053779000 ) ) ;
#203 = PERSON_AND_ORGANIZATION_ROLE ( 'creator' ) ;
#204 = SHAPE_DEFINITION_REPRESENTATION ( #121, #1 ) ;
#205 = PRODUCT ( '112-1419E UVFS pl-cv 38.1 F-200', '112-1419E UVFS pl-cv 38.1 F-200', '', ( #104 ) ) ;
#206 = ORIENTED_EDGE ( 'NONE', *, *, #176, .F. ) ;
#207 = CYLINDRICAL_SURFACE ( 'NONE', #35, 19.05000000000000100 ) ;
#208 = AXIS2_PLACEMENT_3D ( 'NONE', #145, #182, #33 ) ;
#209 = DIRECTION ( 'NONE',  ( 1.000000000000000000, 0.0000000000000000000, 1.138269997360109700E-017 ) ) ;
#210 = ORIENTED_EDGE ( 'NONE', *, *, #105, .F. ) ;
#211 = DIRECTION ( 'NONE',  ( 1.000000000000000000, 9.414397848674539600E-032, 3.084613711104210100E-016 ) ) ;
#212 = DIRECTION ( 'NONE',  ( 1.000000000000000000, 0.0000000000000000000, 1.138269997360109700E-017 ) ) ;
#213 = CYLINDRICAL_SURFACE ( 'NONE', #233, 19.05000000000000100 ) ;
#214 = CARTESIAN_POINT ( 'NONE',  ( -19.05000000000000400, 1.444773732675583000E-015, -1.925265986336220700 ) ) ;
#215 = CARTESIAN_POINT ( 'NONE',  ( 19.04999999999999700, -8.881784197001250400E-016, -1.925265986336220000 ) ) ;
#216 = CARTESIAN_POINT ( 'NONE',  ( -5.551115123125782700E-014, -19.27544356164155200, -1.971588518990897000 ) ) ;
#217 = APPROVAL ( #134, 'UNSPECIFIED' ) ;
#218 =( BOUNDED_SURFACE ( )  B_SPLINE_SURFACE ( 3, 3, ( 
 ( #107, #54, #18, #55 ),
 ( #150, #130, #183, #15 ),
 ( #110, #71, #198, #34 ),
 ( #202, #92, #146, #216 ) ),
 .UNSPECIFIED., .F., .F., .F. ) 
 B_SPLINE_SURFACE_WITH_KNOTS ( ( 4, 4 ),
 ( 4, 4 ),
 ( 0.0000000000000000000, 1.000000000000000000 ),
 ( 0.0000000000000000000, 1.000000000000000000 ),
 .UNSPECIFIED. ) 
 GEOMETRIC_REPRESENTATION_ITEM ( )  RATIONAL_B_SPLINE_SURFACE ( (
 ( 1.000000000000000000, 0.9965805961408008600, 0.9965805961408008600, 1.000000000000000000),
 ( 0.9861948078353750500, 0.9828226095035406100, 0.9828226095035406100, 0.9861948078353750500),
 ( 0.9861948078353750500, 0.9828226095035406100, 0.9828226095035406100, 0.9861948078353750500),
 ( 1.000000000000000000, 0.9965805961408008600, 0.9965805961408008600, 1.000000000000000000) ) ) 
 REPRESENTATION_ITEM ( '' )  SURFACE ( )  );
#219 = PERSON_AND_ORGANIZATION_ROLE ( 'design_supplier' ) ;
#220 = CARTESIAN_POINT ( 'NONE',  ( 18.76591790317395300, -19.27544356164155200, -3.879601442053787900 ) ) ;
#221 = CC_DESIGN_PERSON_AND_ORGANIZATION_ASSIGNMENT ( #179, #203, ( #190 ) ) ;
#222 = VECTOR ( 'NONE', #235, 1000.000000000000000 ) ;
#223 = APPROVAL_DATE_TIME ( #175, #155 ) ;
#224 = LINE ( 'NONE', #138, #48 ) ;
#225 = ADVANCED_FACE ( 'NONE', ( #108 ), #218, .F. ) ;
#226 = CARTESIAN_POINT ( 'NONE',  ( -4.720345036238611400E-015, -8.881784197001250400E-016, 3.000000000000000900 ) ) ;
#227 = DIRECTION ( 'NONE',  ( 0.0000000000000000000, 0.0000000000000000000, 1.000000000000000000 ) ) ;
#228 = CC_DESIGN_APPROVAL ( #217, ( #184 ) ) ;
#229 = CARTESIAN_POINT ( 'NONE',  ( 6.487632476798002500, -6.515089922226664500, 0.6663958964045370000 ) ) ;
#230 = EDGE_LOOP ( 'NONE', ( #152, #114, #192, #7, #12 ) ) ;
#231 = CARTESIAN_POINT ( 'NONE',  ( -4.662936703425659800E-015, -8.881784197001250400E-016, -1.925265986336220300 ) ) ;
#232 = DIRECTION ( 'NONE',  ( -1.165588477296749900E-017, -5.434385993627839900E-034, 1.000000000000000000 ) ) ;
#233 = AXIS2_PLACEMENT_3D ( 'NONE', #231, #109, #212 ) ;
#234 = DIRECTION ( 'NONE',  ( -1.165588477296749900E-017, -5.434385993627839900E-034, 1.000000000000000000 ) ) ;
#235 = DIRECTION ( 'NONE',  ( -1.165588477296749900E-017, -5.434385993627839900E-034, 1.000000000000000000 ) ) ;
ENDSEC;
END-ISO-10303-21;
