ISO-10303-21;
HEADER;
FILE_DESCRIPTION (( 'STEP AP203' ),
    '1' );
FILE_NAME ('112-1415E UVFS pl-cv 38.1 F-150.STEP',
    '2019-01-17T08:47:17',
    ( '' ),
    ( '' ),
    'SwSTEP 2.0',
    'SolidWorks 2017',
    '' );
FILE_SCHEMA (( 'CONFIG_CONTROL_DESIGN' ));
ENDSEC;

DATA;
#1 = CC_DESIGN_DATE_AND_TIME_ASSIGNMENT ( #109, #51, ( #94 ) ) ;
#2 = CARTESIAN_POINT ( 'NONE',  ( 6.568637141348300900, 6.587270457864659300, 0.9057278623064778400 ) ) ;
#3 = DATE_AND_TIME ( #100, #161 ) ;
#4 = CARTESIAN_POINT ( 'NONE',  ( 13.07677258929762100, 6.587270457864659300, 0.01625223821885417000 ) ) ;
#5 = DIRECTION ( 'NONE',  ( 0.0000000000000000000, 0.0000000000000000000, 1.000000000000000000 ) ) ;
#6 = CARTESIAN_POINT ( 'NONE',  ( -18.45041732457646700, -19.27291578981790100, -5.171605412664509200 ) ) ;
#7 = AXIS2_PLACEMENT_3D ( 'NONE', #174, #50, #53 ) ;
#8 = VECTOR ( 'NONE', #171, 1000.000000000000000 ) ;
#9 = CARTESIAN_POINT ( 'NONE',  ( 13.07677258929762100, -6.587270457864659300, 0.01625223821883768600 ) ) ;
#10 = PERSON_AND_ORGANIZATION_ROLE ( 'design_owner' ) ;
#11 = APPROVAL_ROLE ( '' ) ;
#12 = CIRCLE ( 'NONE', #23, 19.05000000000000100 ) ;
#13 = PERSON_AND_ORGANIZATION_ROLE ( 'classification_officer' ) ;
#14 = DESIGN_CONTEXT ( 'detailed design', #188, 'design' ) ;
#15 = VERTEX_POINT ( 'NONE', #122 ) ;
#16 = UNCERTAINTY_MEASURE_WITH_UNIT (LENGTH_MEASURE( 1.000000000000000100E-005 ), #46, 'distance_accuracy_value', 'NONE');
#17 = ORIENTED_EDGE ( 'NONE', *, *, #93, .T. ) ;
#18 = CARTESIAN_POINT ( 'NONE',  ( -1.426955914687379600E-014, -19.04999999999999000, -2.587869838256237300 ) ) ;
#19 = AXIS2_PLACEMENT_3D ( 'NONE', #182, #97, #221 ) ;
#20 = PRODUCT ( '112-1415E UVFS pl-cv 38.1 F-150', '112-1415E UVFS pl-cv 38.1 F-150', '', ( #135 ) ) ;
#21 = DIRECTION ( 'NONE',  ( 1.000000000000000000, 0.0000000000000000000, 0.0000000000000000000 ) ) ;
#22 = DIRECTION ( 'NONE',  ( 1.000000000000000000, 0.0000000000000000000, 0.0000000000000000000 ) ) ;
#23 = AXIS2_PLACEMENT_3D ( 'NONE', #139, #39, #160 ) ;
#24 = DIRECTION ( 'NONE',  ( 1.000000000000000000, 8.367767716424150400E-032, -2.056337147698020000E-016 ) ) ;
#25 = ORIENTED_EDGE ( 'NONE', *, *, #197, .T. ) ;
#26 = ADVANCED_BREP_SHAPE_REPRESENTATION ( '112-1415E UVFS pl-cv 38.1 F-150', ( #205, #163 ), #128 ) ;
#27 = CARTESIAN_POINT ( 'NONE',  ( 12.43380113704246700, 19.27291578981790500, -3.495703086930468800 ) ) ;
#28 = PRODUCT_DEFINITION_SHAPE ( 'NONE', 'NONE',  #94 ) ;
#29 = DIRECTION ( 'NONE',  ( 0.0000000000000000000, 0.0000000000000000000, 1.000000000000000000 ) ) ;
#30 = CARTESIAN_POINT ( 'NONE',  ( -19.40451748197357400, -6.587270457864657500, -1.746313637972399100 ) ) ;
#31 = CARTESIAN_POINT ( 'NONE',  ( -2.428612866367529900E-014, 6.587270457864663700, 0.9057278623064800600 ) ) ;
#32 = APPLICATION_PROTOCOL_DEFINITION ( 'international standard', 'config_control_design', 1994, #176 ) ;
#33 = CIRCLE ( 'NONE', #7, 19.05000000000000100 ) ;
#34 = DATE_TIME_ROLE ( 'classification_date' ) ;
#35 = COORDINATED_UNIVERSAL_TIME_OFFSET ( 2, 0, .AHEAD. ) ;
#36 = VERTEX_POINT ( 'NONE', #91 ) ;
#37 = SECURITY_CLASSIFICATION ( '', '', #86 ) ;
#38 = CALENDAR_DATE ( 2019, 17, 1 ) ;
#39 = DIRECTION ( 'NONE',  ( 0.0000000000000000000, 0.0000000000000000000, 1.000000000000000000 ) ) ;
#40 = CARTESIAN_POINT ( 'NONE',  ( -19.05000000000000400, 1.444773732675583000E-015, 3.000000000000000000 ) ) ;
#41 = PERSON_AND_ORGANIZATION ( #180, #175 ) ;
#42 = ORIENTED_EDGE ( 'NONE', *, *, #218, .T. ) ;
#43 = DIRECTION ( 'NONE',  ( 1.000000000000000000, 0.0000000000000000000, 0.0000000000000000000 ) ) ;
#44 = ADVANCED_FACE ( 'NONE', ( #234 ), #92, .T. ) ;
#45 = DIRECTION ( 'NONE',  ( 0.0000000000000000000, 0.0000000000000000000, 1.000000000000000000 ) ) ;
#46 =( LENGTH_UNIT ( ) NAMED_UNIT ( * ) SI_UNIT ( .MILLI., .METRE. ) );
#47 = CARTESIAN_POINT ( 'NONE',  ( -6.245664012216566100, 19.27291578981790500, -2.649962064011425900 ) ) ;
#48 = CARTESIAN_POINT ( 'NONE',  ( 19.04999999999999700, -8.881784197001250400E-016, -2.587869838256240000 ) ) ;
#49 = CARTESIAN_POINT ( 'NONE',  ( -12.43380113704247600, -19.27291578981789800, -3.495703086930475900 ) ) ;
#50 = DIRECTION ( 'NONE',  ( 0.0000000000000000000, 0.0000000000000000000, 1.000000000000000000 ) ) ;
#51 = DATE_TIME_ROLE ( 'creation_date' ) ;
#52 = APPROVAL_DATE_TIME ( #215, #137 ) ;
#53 = DIRECTION ( 'NONE',  ( 1.000000000000000000, 0.0000000000000000000, 0.0000000000000000000 ) ) ;
#54 = CIRCLE ( 'NONE', #73, 19.05000000000000100 ) ;
#55 = APPROVAL_STATUS ( 'not_yet_approved' ) ;
#56 = AXIS2_PLACEMENT_3D ( 'NONE', #64, #29, #66 ) ;
#57 = PERSON_AND_ORGANIZATION ( #180, #175 ) ;
#58 = COORDINATED_UNIVERSAL_TIME_OFFSET ( 2, 0, .AHEAD. ) ;
#59 = VERTEX_POINT ( 'NONE', #119 ) ;
#60 = ORIENTED_EDGE ( 'NONE', *, *, #145, .F. ) ;
#61 = CARTESIAN_POINT ( 'NONE',  ( -2.842170943040400100E-014, -7.105427357601000300E-015, -71.40999999999999700 ) ) ;
#62 = ADVANCED_FACE ( 'NONE', ( #158 ), #179, .T. ) ;
#63 = VERTEX_POINT ( 'NONE', #18 ) ;
#64 = CARTESIAN_POINT ( 'NONE',  ( -4.662936703425659800E-015, -8.881784197001250400E-016, -2.587869838256240000 ) ) ;
#65 = CARTESIAN_POINT ( 'NONE',  ( -18.45041732457646300, 19.27291578981791200, -5.171605412664495900 ) ) ;
#66 = DIRECTION ( 'NONE',  ( 1.000000000000000000, 0.0000000000000000000, 0.0000000000000000000 ) ) ;
#67 = FACE_OUTER_BOUND ( 'NONE', #193, .T. ) ;
#68 = CARTESIAN_POINT ( 'NONE',  ( 6.245664012216543000, -19.27291578981790100, -2.649962064011441900 ) ) ;
#69 =( NAMED_UNIT ( * ) PLANE_ANGLE_UNIT ( ) SI_UNIT ( $, .RADIAN. ) );
#70 = ORIENTED_EDGE ( 'NONE', *, *, #71, .T. ) ;
#71 = EDGE_CURVE ( 'NONE', #36, #63, #12, .T. ) ;
#72 = ORIENTED_EDGE ( 'NONE', *, *, #105, .F. ) ;
#73 = AXIS2_PLACEMENT_3D ( 'NONE', #166, #151, #169 ) ;
#74 = LOCAL_TIME ( 10, 47, 17.00000000000000000, #35 ) ;
#75 = AXIS2_PLACEMENT_3D ( 'NONE', #124, #123, #212 ) ;
#76 = CIRCLE ( 'NONE', #228, 19.05000000000000100 ) ;
#77 = EDGE_LOOP ( 'NONE', ( #117, #168 ) ) ;
#78 = CARTESIAN_POINT ( 'NONE',  ( -19.05000000000000400, 1.444773732675583000E-015, -2.587869838256240000 ) ) ;
#79 = CARTESIAN_POINT ( 'NONE',  ( -1.355115767379585000E-014, -6.587270457864661000, 0.9057278623064622900 ) ) ;
#80 = CARTESIAN_POINT ( 'NONE',  ( 6.245664012216542100, 19.27291578981790500, -2.649962064011428100 ) ) ;
#81 = PERSON_AND_ORGANIZATION ( #180, #175 ) ;
#82 = VERTEX_POINT ( 'NONE', #40 ) ;
#83 = CARTESIAN_POINT ( 'NONE',  ( -13.07677258929762600, 6.587270457864662800, 0.01625223821886132700 ) ) ;
#84 = PERSON_AND_ORGANIZATION ( #180, #175 ) ;
#85 = APPLICATION_PROTOCOL_DEFINITION ( 'international standard', 'config_control_design', 1994, #188 ) ;
#86 = SECURITY_CLASSIFICATION_LEVEL ( 'unclassified' ) ;
#87 = COORDINATED_UNIVERSAL_TIME_OFFSET ( 2, 0, .AHEAD. ) ;
#88 = CC_DESIGN_DATE_AND_TIME_ASSIGNMENT ( #3, #34, ( #37 ) ) ;
#89 = EDGE_CURVE ( 'NONE', #15, #82, #110, .T. ) ;
#90 = CARTESIAN_POINT ( 'NONE',  ( -1.426955914687379600E-014, 19.04999999999998300, -2.587869838256237300 ) ) ;
#91 = CARTESIAN_POINT ( 'NONE',  ( -19.05000000000000400, 1.444773732675583000E-015, -2.587869838256240000 ) ) ;
#92 = CYLINDRICAL_SURFACE ( 'NONE', #162, 19.05000000000000100 ) ;
#93 = EDGE_CURVE ( 'NONE', #63, #59, #76, .T. ) ;
#94 = PRODUCT_DEFINITION ( 'UNKNOWN', '', #107, #14 ) ;
#95 = COORDINATED_UNIVERSAL_TIME_OFFSET ( 2, 0, .AHEAD. ) ;
#96 = DATE_AND_TIME ( #235, #141 ) ;
#97 = DIRECTION ( 'NONE',  ( -0.0000000000000000000, -0.0000000000000000000, -1.000000000000000000 ) ) ;
#98 = CARTESIAN_POINT ( 'NONE',  ( -13.07677258929762800, -6.587270457864657500, 0.01625223821884484400 ) ) ;
#99 = EDGE_CURVE ( 'NONE', #104, #63, #106, .T. ) ;
#100 = CALENDAR_DATE ( 2019, 17, 1 ) ;
#101 = APPROVAL_STATUS ( 'not_yet_approved' ) ;
#102 = PERSON_AND_ORGANIZATION ( #180, #175 ) ;
#103 = CARTESIAN_POINT ( 'NONE',  ( 0.0000000000000000000, 0.0000000000000000000, 0.0000000000000000000 ) ) ;
#104 = VERTEX_POINT ( 'NONE', #90 ) ;
#105 = EDGE_CURVE ( 'NONE', #36, #82, #165, .T. ) ;
#106 = CIRCLE ( 'NONE', #170, 71.40999999999999700 ) ;
#107 = PRODUCT_DEFINITION_FORMATION_WITH_SPECIFIED_SOURCE ( 'ANY', '', #20, .NOT_KNOWN. ) ;
#108 = ADVANCED_FACE ( 'NONE', ( #148 ), #213, .F. ) ;
#109 = DATE_AND_TIME ( #38, #74 ) ;
#110 = CIRCLE ( 'NONE', #143, 19.05000000000000100 ) ;
#111 = EDGE_LOOP ( 'NONE', ( #42, #25, #231, #142, #60 ) ) ;
#112 = CARTESIAN_POINT ( 'NONE',  ( -2.775557561562891400E-014, -6.587270457864658400, 0.9057278623064640700 ) ) ;
#113 = CARTESIAN_POINT ( 'NONE',  ( 6.568637141348298200, -6.587270457864659300, 0.9057278623064608500 ) ) ;
#114 = APPROVAL ( #55, 'UNSPECIFIED' ) ;
#115 = EDGE_LOOP ( 'NONE', ( #223, #211, #216 ) ) ;
#116 = DIRECTION ( 'NONE',  ( 1.000000000000000000, 0.0000000000000000000, 0.0000000000000000000 ) ) ;
#117 = ORIENTED_EDGE ( 'NONE', *, *, #89, .F. ) ;
#118 = CC_DESIGN_APPROVAL ( #155, ( #37 ) ) ;
#119 = CARTESIAN_POINT ( 'NONE',  ( 19.04999999999999700, -8.881784197001250400E-016, -2.587869838256240000 ) ) ;
#120 = APPROVAL_DATE_TIME ( #96, #155 ) ;
#121 = ORIENTED_EDGE ( 'NONE', *, *, #93, .F. ) ;
#122 = CARTESIAN_POINT ( 'NONE',  ( 19.04999999999999700, -8.881784197001250400E-016, 3.000000000000000000 ) ) ;
#123 = DIRECTION ( 'NONE',  ( 0.0000000000000000000, 0.0000000000000000000, 1.000000000000000000 ) ) ;
#124 = CARTESIAN_POINT ( 'NONE',  ( 0.0000000000000000000, 39.06600000000000300, 3.000000000000000000 ) ) ;
#125 = PERSON_AND_ORGANIZATION ( #180, #175 ) ;
#126 = DIRECTION ( 'NONE',  ( 0.0000000000000000000, 0.0000000000000000000, 1.000000000000000000 ) ) ;
#127 =( BOUNDED_SURFACE ( )  B_SPLINE_SURFACE ( 3, 3, ( 
 ( #152, #80, #27, #132 ),
 ( #204, #2, #4, #129 ),
 ( #79, #113, #9, #154 ),
 ( #149, #68, #186, #224 ) ),
 .UNSPECIFIED., .F., .F., .F. ) 
 B_SPLINE_SURFACE_WITH_KNOTS ( ( 4, 4 ),
 ( 4, 4 ),
 ( 0.0000000000000000000, 1.000000000000000000 ),
 ( 0.0000000000000000000, 1.000000000000000000 ),
 .UNSPECIFIED. ) 
 GEOMETRIC_REPRESENTATION_ITEM ( )  RATIONAL_B_SPLINE_SURFACE ( (
 ( 1.000000000000000000, 0.9938595386838923200, 0.9938595386838923200, 1.000000000000000000),
 ( 0.9752605884889004000, 0.9692720385721599300, 0.9692720385721599300, 0.9752605884889004000),
 ( 0.9752605884889004000, 0.9692720385721599300, 0.9692720385721599300, 0.9752605884889004000),
 ( 1.000000000000000000, 0.9938595386838923200, 0.9938595386838923200, 1.000000000000000000) ) ) 
 REPRESENTATION_ITEM ( '' )  SURFACE ( )  );
#128 =( GEOMETRIC_REPRESENTATION_CONTEXT ( 3 ) GLOBAL_UNCERTAINTY_ASSIGNED_CONTEXT ( ( #16 ) ) GLOBAL_UNIT_ASSIGNED_CONTEXT ( ( #46, #69, #229 ) ) REPRESENTATION_CONTEXT ( 'NONE', 'WORKASPACE' ) );
#129 = CARTESIAN_POINT ( 'NONE',  ( 19.40451748197358500, 6.587270457864661900, -1.746313637972401100 ) ) ;
#130 = CARTESIAN_POINT ( 'NONE',  ( -6.245664012216567000, -19.27291578981790100, -2.649962064011437400 ) ) ;
#131 = CLOSED_SHELL ( 'NONE', ( #108, #219, #146, #44, #62 ) ) ;
#132 = CARTESIAN_POINT ( 'NONE',  ( 18.45041732457647400, 19.27291578981790800, -5.171605412664512800 ) ) ;
#133 = CARTESIAN_POINT ( 'NONE',  ( -2.775557561562891400E-014, -19.27291578981790500, -2.649962064011437900 ) ) ;
#134 = APPROVAL_ROLE ( '' ) ;
#135 = MECHANICAL_CONTEXT ( 'NONE', #176, 'mechanical' ) ;
#136 = SHAPE_DEFINITION_REPRESENTATION ( #28, #26 ) ;
#137 = APPROVAL ( #101, 'UNSPECIFIED' ) ;
#138 = FACE_OUTER_BOUND ( 'NONE', #111, .T. ) ;
#139 = CARTESIAN_POINT ( 'NONE',  ( -4.662936703425659800E-015, -8.881784197001250400E-016, -2.587869838256240000 ) ) ;
#140 = CARTESIAN_POINT ( 'NONE',  ( -4.662936703425659800E-015, -8.881784197001250400E-016, 3.000000000000000000 ) ) ;
#141 = LOCAL_TIME ( 10, 47, 17.00000000000000000, #87 ) ;
#142 = ORIENTED_EDGE ( 'NONE', *, *, #159, .T. ) ;
#143 = AXIS2_PLACEMENT_3D ( 'NONE', #140, #214, #21 ) ;
#144 = APPROVAL_DATE_TIME ( #227, #114 ) ;
#145 = EDGE_CURVE ( 'NONE', #59, #15, #183, .T. ) ;
#146 = ADVANCED_FACE ( 'NONE', ( #67 ), #127, .F. ) ;
#147 = APPROVAL_PERSON_ORGANIZATION ( #198, #114, #194 ) ;
#148 = FACE_OUTER_BOUND ( 'NONE', #115, .T. ) ;
#149 = CARTESIAN_POINT ( 'NONE',  ( -1.428232740191416200E-014, -19.27291578981790500, -2.649962064011441000 ) ) ;
#150 = CC_DESIGN_PERSON_AND_ORGANIZATION_ASSIGNMENT ( #102, #226, ( #107 ) ) ;
#151 = DIRECTION ( 'NONE',  ( 0.0000000000000000000, 0.0000000000000000000, 1.000000000000000000 ) ) ;
#152 = CARTESIAN_POINT ( 'NONE',  ( -1.428232740191416500E-014, 19.27291578981790800, -2.649962064011426800 ) ) ;
#153 = ORIENTED_EDGE ( 'NONE', *, *, #99, .F. ) ;
#154 = CARTESIAN_POINT ( 'NONE',  ( 19.40451748197358100, -6.587270457864660100, -1.746313637972417300 ) ) ;
#155 = APPROVAL ( #157, 'UNSPECIFIED' ) ;
#156 = APPROVAL_PERSON_ORGANIZATION ( #57, #155, #11 ) ;
#157 = APPROVAL_STATUS ( 'not_yet_approved' ) ;
#158 = FACE_OUTER_BOUND ( 'NONE', #77, .T. ) ;
#159 = EDGE_CURVE ( 'NONE', #82, #15, #207, .T. ) ;
#160 = DIRECTION ( 'NONE',  ( 1.000000000000000000, 0.0000000000000000000, 0.0000000000000000000 ) ) ;
#161 = LOCAL_TIME ( 10, 47, 17.00000000000000000, #58 ) ;
#162 = AXIS2_PLACEMENT_3D ( 'NONE', #233, #126, #22 ) ;
#163 = AXIS2_PLACEMENT_3D ( 'NONE', #103, #189, #116 ) ;
#164 = COORDINATED_UNIVERSAL_TIME_OFFSET ( 2, 0, .AHEAD. ) ;
#165 = LINE ( 'NONE', #78, #173 ) ;
#166 = CARTESIAN_POINT ( 'NONE',  ( -4.662936703425659800E-015, -8.881784197001250400E-016, -2.587869838256240000 ) ) ;
#167 = LOCAL_TIME ( 10, 47, 17.00000000000000000, #164 ) ;
#168 = ORIENTED_EDGE ( 'NONE', *, *, #159, .F. ) ;
#169 = DIRECTION ( 'NONE',  ( 1.000000000000000000, 0.0000000000000000000, 0.0000000000000000000 ) ) ;
#170 = AXIS2_PLACEMENT_3D ( 'NONE', #61, #24, #200 ) ;
#171 = DIRECTION ( 'NONE',  ( 0.0000000000000000000, 0.0000000000000000000, 1.000000000000000000 ) ) ;
#172 = CALENDAR_DATE ( 2019, 17, 1 ) ;
#173 = VECTOR ( 'NONE', #5, 1000.000000000000000 ) ;
#174 = CARTESIAN_POINT ( 'NONE',  ( -4.662936703425659800E-015, -8.881784197001250400E-016, -2.587869838256240000 ) ) ;
#175 = ORGANIZATION ( 'UNSPECIFIED', 'UNSPECIFIED', '' ) ;
#176 = APPLICATION_CONTEXT ( 'configuration controlled 3d designs of mechanical parts and assemblies' ) ;
#177 = EDGE_LOOP ( 'NONE', ( #72, #70, #17, #203, #196 ) ) ;
#178 = CC_DESIGN_PERSON_AND_ORGANIZATION_ASSIGNMENT ( #125, #230, ( #94 ) ) ;
#179 = PLANE ( 'NONE',  #75 ) ;
#180 = PERSON ( 'UNSPECIFIED', 'UNSPECIFIED', 'UNSPECIFIED', ('UNSPECIFIED'), ('UNSPECIFIED'), ('UNSPECIFIED') ) ;
#181 = CARTESIAN_POINT ( 'NONE',  ( -4.662936703425659800E-015, -8.881784197001250400E-016, -2.587869838256240000 ) ) ;
#182 = CARTESIAN_POINT ( 'NONE',  ( -4.662936703425659800E-015, -8.881784197001250400E-016, 3.000000000000000000 ) ) ;
#183 = LINE ( 'NONE', #48, #8 ) ;
#184 = CARTESIAN_POINT ( 'NONE',  ( -19.40451748197357400, 6.587270457864664600, -1.746313637972382700 ) ) ;
#185 = CARTESIAN_POINT ( 'NONE',  ( -2.775557561562891400E-014, 19.27291578981790800, -2.649962064011425400 ) ) ;
#186 = CARTESIAN_POINT ( 'NONE',  ( 12.43380113704246500, -19.27291578981790100, -3.495703086930483000 ) ) ;
#187 = CC_DESIGN_PERSON_AND_ORGANIZATION_ASSIGNMENT ( #192, #13, ( #37 ) ) ;
#188 = APPLICATION_CONTEXT ( 'configuration controlled 3d designs of mechanical parts and assemblies' ) ;
#189 = DIRECTION ( 'NONE',  ( 0.0000000000000000000, 0.0000000000000000000, 1.000000000000000000 ) ) ;
#190 = CC_DESIGN_APPROVAL ( #137, ( #94 ) ) ;
#191 = PERSON_AND_ORGANIZATION_ROLE ( 'design_supplier' ) ;
#192 = PERSON_AND_ORGANIZATION ( #180, #175 ) ;
#193 = EDGE_LOOP ( 'NONE', ( #153, #201, #121 ) ) ;
#194 = APPROVAL_ROLE ( '' ) ;
#195 = CC_DESIGN_APPROVAL ( #114, ( #107 ) ) ;
#196 = ORIENTED_EDGE ( 'NONE', *, *, #89, .T. ) ;
#197 = EDGE_CURVE ( 'NONE', #104, #36, #54, .T. ) ;
#198 = PERSON_AND_ORGANIZATION ( #180, #175 ) ;
#199 = CC_DESIGN_PERSON_AND_ORGANIZATION_ASSIGNMENT ( #84, #191, ( #107 ) ) ;
#200 = DIRECTION ( 'NONE',  ( 0.0000000000000000000, 1.000000000000000000, 3.886791151887539000E-016 ) ) ;
#201 = ORIENTED_EDGE ( 'NONE', *, *, #218, .F. ) ;
#202 = APPROVAL_PERSON_ORGANIZATION ( #81, #137, #134 ) ;
#203 = ORIENTED_EDGE ( 'NONE', *, *, #145, .T. ) ;
#204 = CARTESIAN_POINT ( 'NONE',  ( -1.355115767379585000E-014, 6.587270457864661000, 0.9057278623064792800 ) ) ;
#205 = MANIFOLD_SOLID_BREP ( 'Imported1', #131 ) ;
#206 = CARTESIAN_POINT ( 'NONE',  ( -6.568637141348321300, 6.587270457864662800, 0.9057278623064802800 ) ) ;
#207 = CIRCLE ( 'NONE', #19, 19.05000000000000100 ) ;
#208 = PRODUCT_RELATED_PRODUCT_CATEGORY ( 'detail', '', ( #20 ) ) ;
#209 = CYLINDRICAL_SURFACE ( 'NONE', #56, 19.05000000000000100 ) ;
#210 = LOCAL_TIME ( 10, 47, 17.00000000000000000, #95 ) ;
#211 = ORIENTED_EDGE ( 'NONE', *, *, #99, .T. ) ;
#212 = DIRECTION ( 'NONE',  ( 1.000000000000000000, 0.0000000000000000000, -0.0000000000000000000 ) ) ;
#213 =( BOUNDED_SURFACE ( )  B_SPLINE_SURFACE ( 3, 3, ( 
 ( #65, #225, #47, #185 ),
 ( #184, #83, #206, #31 ),
 ( #30, #98, #220, #112 ),
 ( #6, #49, #130, #133 ) ),
 .UNSPECIFIED., .F., .F., .F. ) 
 B_SPLINE_SURFACE_WITH_KNOTS ( ( 4, 4 ),
 ( 4, 4 ),
 ( 0.0000000000000000000, 1.000000000000000000 ),
 ( 0.0000000000000000000, 1.000000000000000000 ),
 .UNSPECIFIED. ) 
 GEOMETRIC_REPRESENTATION_ITEM ( )  RATIONAL_B_SPLINE_SURFACE ( (
 ( 1.000000000000000000, 0.9938595386838925400, 0.9938595386838925400, 1.000000000000000000),
 ( 0.9752605884889004000, 0.9692720385721601600, 0.9692720385721601600, 0.9752605884889004000),
 ( 0.9752605884889004000, 0.9692720385721601600, 0.9692720385721601600, 0.9752605884889004000),
 ( 1.000000000000000000, 0.9938595386838925400, 0.9938595386838925400, 1.000000000000000000) ) ) 
 REPRESENTATION_ITEM ( '' )  SURFACE ( )  );
#214 = DIRECTION ( 'NONE',  ( -0.0000000000000000000, -0.0000000000000000000, -1.000000000000000000 ) ) ;
#215 = DATE_AND_TIME ( #172, #210 ) ;
#216 = ORIENTED_EDGE ( 'NONE', *, *, #71, .F. ) ;
#217 = CC_DESIGN_SECURITY_CLASSIFICATION ( #37, ( #107 ) ) ;
#218 = EDGE_CURVE ( 'NONE', #59, #104, #33, .T. ) ;
#219 = ADVANCED_FACE ( 'NONE', ( #138 ), #209, .T. ) ;
#220 = CARTESIAN_POINT ( 'NONE',  ( -6.568637141348322200, -6.587270457864657500, 0.9057278623064638500 ) ) ;
#221 = DIRECTION ( 'NONE',  ( 1.000000000000000000, 0.0000000000000000000, 0.0000000000000000000 ) ) ;
#222 = CC_DESIGN_PERSON_AND_ORGANIZATION_ASSIGNMENT ( #41, #10, ( #20 ) ) ;
#223 = ORIENTED_EDGE ( 'NONE', *, *, #197, .F. ) ;
#224 = CARTESIAN_POINT ( 'NONE',  ( 18.45041732457647400, -19.27291578981790500, -5.171605412664527000 ) ) ;
#225 = CARTESIAN_POINT ( 'NONE',  ( -12.43380113704247200, 19.27291578981790800, -3.495703086930462200 ) ) ;
#226 = PERSON_AND_ORGANIZATION_ROLE ( 'creator' ) ;
#227 = DATE_AND_TIME ( #232, #167 ) ;
#228 = AXIS2_PLACEMENT_3D ( 'NONE', #181, #45, #43 ) ;
#229 =( NAMED_UNIT ( * ) SI_UNIT ( $, .STERADIAN. ) SOLID_ANGLE_UNIT ( ) );
#230 = PERSON_AND_ORGANIZATION_ROLE ( 'creator' ) ;
#231 = ORIENTED_EDGE ( 'NONE', *, *, #105, .T. ) ;
#232 = CALENDAR_DATE ( 2019, 17, 1 ) ;
#233 = CARTESIAN_POINT ( 'NONE',  ( -4.662936703425659800E-015, -8.881784197001250400E-016, -2.587869838256240000 ) ) ;
#234 = FACE_OUTER_BOUND ( 'NONE', #177, .T. ) ;
#235 = CALENDAR_DATE ( 2019, 17, 1 ) ;
ENDSEC;
END-ISO-10303-21;
