ISO-10303-21;
HEADER;
FILE_DESCRIPTION (( 'STEP AP203' ),
    '1' );
FILE_NAME ('112-1255E UVFS pl-cv 25.4 F-5000.STEP',
    '2019-01-17T08:06:19',
    ( '' ),
    ( '' ),
    'SwSTEP 2.0',
    'SolidWorks 2017',
    '' );
FILE_SCHEMA (( 'CONFIG_CONTROL_DESIGN' ));
ENDSEC;

DATA;
#1 = CC_DESIGN_PERSON_AND_ORGANIZATION_ASSIGNMENT ( #72, #149, ( #139 ) ) ;
#2 = DIRECTION ( 'NONE',  ( 0.0000000000000000000, 0.0000000000000000000, 1.000000000000000000 ) ) ;
#3 = ORIENTED_EDGE ( 'NONE', *, *, #18, .F. ) ;
#4 = DIRECTION ( 'NONE',  ( 1.000000000000000000, 0.0000000000000000000, 0.0000000000000000000 ) ) ;
#5 = CARTESIAN_POINT ( 'NONE',  ( 12.69999999999999900, 2.442490654175340100E-015, -0.03388469499423339700 ) ) ;
#6 = DATE_AND_TIME ( #69, #138 ) ;
#7 = CARTESIAN_POINT ( 'NONE',  ( -6.748074321549779600E-013, 4.284174487512934200, 0.01156771414031073500 ) ) ;
#8 = ORIENTED_EDGE ( 'NONE', *, *, #220, .T. ) ;
#9 = PERSON_AND_ORGANIZATION ( #28, #38 ) ;
#10 = CARTESIAN_POINT ( 'NONE',  ( 4.258696560936961400, 12.85239852735238000, -0.03470280508199887600 ) ) ;
#11 = ORIENTED_EDGE ( 'NONE', *, *, #70, .F. ) ;
#12 = CARTESIAN_POINT ( 'NONE',  ( 4.258696560936972000, -12.85239852735265800, -0.03470280508199887600 ) ) ;
#13 = CC_DESIGN_APPROVAL ( #125, ( #232 ) ) ;
#14 = PRODUCT ( '112-1255E UVFS pl-cv 25.4 F-5000', '112-1255E UVFS pl-cv 25.4 F-5000', '', ( #214 ) ) ;
#15 = APPLICATION_PROTOCOL_DEFINITION ( 'international standard', 'config_control_design', 1994, #86 ) ;
#16 = DIRECTION ( 'NONE',  ( 0.0000000000000000000, 0.0000000000000000000, 1.000000000000000000 ) ) ;
#17 = VECTOR ( 'NONE', #193, 1000.000000000000000 ) ;
#18 = EDGE_CURVE ( 'NONE', #141, #155, #80, .T. ) ;
#19 = CARTESIAN_POINT ( 'NONE',  ( -2.273736754432320100E-013, 0.0000000000000000000, -2380.000000000000000 ) ) ;
#20 = CARTESIAN_POINT ( 'NONE',  ( 4.996003610813200500E-016, 2.442490654175340100E-015, -0.03388469499423339700 ) ) ;
#21 = LOCAL_TIME ( 10, 6, 19.00000000000000000, #137 ) ;
#22 = CARTESIAN_POINT ( 'NONE',  ( -6.696032617270475400E-013, -4.284174487513214800, 0.01156771414031175200 ) ) ;
#23 = CARTESIAN_POINT ( 'NONE',  ( -8.517543373472955500, -4.284174487513219300, 0.0001367877299329830400 ) ) ;
#24 = AXIS2_PLACEMENT_3D ( 'NONE', #105, #16, #4 ) ;
#25 = ORIENTED_EDGE ( 'NONE', *, *, #61, .T. ) ;
#26 = MANIFOLD_SOLID_BREP ( 'Imported1', #109 ) ;
#27 = VERTEX_POINT ( 'NONE', #67 ) ;
#28 = PERSON ( 'UNSPECIFIED', 'UNSPECIFIED', 'UNSPECIFIED', ('UNSPECIFIED'), ('UNSPECIFIED'), ('UNSPECIFIED') ) ;
#29 = DIRECTION ( 'NONE',  ( 0.0000000000000000000, 0.0000000000000000000, 1.000000000000000000 ) ) ;
#30 = PERSON_AND_ORGANIZATION ( #28, #38 ) ;
#31 = CARTESIAN_POINT ( 'NONE',  ( -8.950449803752000000E-014, -4.284174487513214800, 0.01156771414004747200 ) ) ;
#32 = ORIENTED_EDGE ( 'NONE', *, *, #95, .T. ) ;
#33 = APPLICATION_PROTOCOL_DEFINITION ( 'international standard', 'config_control_design', 1994, #235 ) ;
#34 = EDGE_LOOP ( 'NONE', ( #114, #3 ) ) ;
#35 = ADVANCED_FACE ( 'NONE', ( #66 ), #153, .F. ) ;
#36 = VERTEX_POINT ( 'NONE', #97 ) ;
#37 = PLANE ( 'NONE',  #210 ) ;
#38 = ORGANIZATION ( 'UNSPECIFIED', 'UNSPECIFIED', '' ) ;
#39 = DIRECTION ( 'NONE',  ( 1.000000000000000000, 0.0000000000000000000, 0.0000000000000000000 ) ) ;
#40 = CARTESIAN_POINT ( 'NONE',  ( -6.782768791069315700E-013, 12.85239852735237800, -0.03470280508173434500 ) ) ;
#41 = CARTESIAN_POINT ( 'NONE',  ( -12.77601298032640500, -12.85239852735266400, -0.06899483526590088900 ) ) ;
#42 = CALENDAR_DATE ( 2019, 17, 1 ) ;
#43 = AXIS2_PLACEMENT_3D ( 'NONE', #79, #140, #39 ) ;
#44 = EDGE_LOOP ( 'NONE', ( #8, #25, #190, #50, #224 ) ) ;
#45 = LINE ( 'NONE', #101, #54 ) ;
#46 = DIRECTION ( 'NONE',  ( 1.000000000000000000, 0.0000000000000000000, 0.0000000000000000000 ) ) ;
#47 = CARTESIAN_POINT ( 'NONE',  ( 0.0000000000000000000, 0.0000000000000000000, 0.0000000000000000000 ) ) ;
#48 = CARTESIAN_POINT ( 'NONE',  ( 4.996003610813200500E-016, 2.442490654175340100E-015, 2.000000000000000000 ) ) ;
#49 = CYLINDRICAL_SURFACE ( 'NONE', #169, 12.69999999999999900 ) ;
#50 = ORIENTED_EDGE ( 'NONE', *, *, #18, .T. ) ;
#51 = DIRECTION ( 'NONE',  ( 1.000000000000000000, 0.0000000000000000000, 0.0000000000000000000 ) ) ;
#52 = AXIS2_PLACEMENT_3D ( 'NONE', #117, #121, #51 ) ;
#53 = COORDINATED_UNIVERSAL_TIME_OFFSET ( 2, 0, .AHEAD. ) ;
#54 = VECTOR ( 'NONE', #186, 1000.000000000000000 ) ;
#55 = ORIENTED_EDGE ( 'NONE', *, *, #145, .T. ) ;
#56 = CARTESIAN_POINT ( 'NONE',  ( 12.69999999999999900, 2.442490654175340100E-015, 2.000000000000000000 ) ) ;
#57 = DIRECTION ( 'NONE',  ( 0.0000000000000000000, 0.0000000000000000000, 1.000000000000000000 ) ) ;
#58 = DATE_AND_TIME ( #42, #65 ) ;
#59 = CARTESIAN_POINT ( 'NONE',  ( -8.517377781355785200, -12.85239852735266400, -0.04613350926004190800 ) ) ;
#60 = CARTESIAN_POINT ( 'NONE',  ( -6.678685382510707300E-013, -12.85239852735265800, -0.03470280508173434500 ) ) ;
#61 = EDGE_CURVE ( 'NONE', #27, #131, #104, .T. ) ;
#62 = APPROVAL_DATE_TIME ( #92, #125 ) ;
#63 = CYLINDRICAL_SURFACE ( 'NONE', #81, 12.69999999999999900 ) ;
#64 = CC_DESIGN_APPROVAL ( #180, ( #75 ) ) ;
#65 = LOCAL_TIME ( 10, 6, 19.00000000000000000, #228 ) ;
#66 = FACE_OUTER_BOUND ( 'NONE', #164, .T. ) ;
#67 = CARTESIAN_POINT ( 'NONE',  ( -9.614287617784370000E-014, 12.70000000000617600, -0.03388469499427864500 ) ) ;
#68 = APPROVAL_ROLE ( '' ) ;
#69 = CALENDAR_DATE ( 2019, 17, 1 ) ;
#70 = EDGE_CURVE ( 'NONE', #131, #141, #179, .T. ) ;
#71 =( LENGTH_UNIT ( ) NAMED_UNIT ( * ) SI_UNIT ( .MILLI., .METRE. ) );
#72 = PERSON_AND_ORGANIZATION ( #28, #38 ) ;
#73 = ADVANCED_FACE ( 'NONE', ( #130 ), #37, .T. ) ;
#74 = CARTESIAN_POINT ( 'NONE',  ( 4.996003610813200500E-016, 2.442490654175340100E-015, -0.03388469499423339700 ) ) ;
#75 = PRODUCT_DEFINITION ( 'UNKNOWN', '', #139, #83 ) ;
#76 = ORIENTED_EDGE ( 'NONE', *, *, #220, .F. ) ;
#77 = CARTESIAN_POINT ( 'NONE',  ( -12.69999999999999900, 3.997792089092478900E-015, -0.03388469499423339700 ) ) ;
#78 = APPROVAL ( #150, 'UNSPECIFIED' ) ;
#79 = CARTESIAN_POINT ( 'NONE',  ( 4.996003610813200500E-016, 2.442490654175340100E-015, -0.03388469499423339700 ) ) ;
#80 = CIRCLE ( 'NONE', #103, 12.69999999999999900 ) ;
#81 = AXIS2_PLACEMENT_3D ( 'NONE', #222, #57, #181 ) ;
#82 = CALENDAR_DATE ( 2019, 17, 1 ) ;
#83 = DESIGN_CONTEXT ( 'detailed design', #86, 'design' ) ;
#84 = DIRECTION ( 'NONE',  ( -0.0000000000000000000, -0.0000000000000000000, -1.000000000000000000 ) ) ;
#85 = ORIENTED_EDGE ( 'NONE', *, *, #201, .T. ) ;
#86 = APPLICATION_CONTEXT ( 'configuration controlled 3d designs of mechanical parts and assemblies' ) ;
#87 = FACE_OUTER_BOUND ( 'NONE', #207, .T. ) ;
#88 =( GEOMETRIC_REPRESENTATION_CONTEXT ( 3 ) GLOBAL_UNCERTAINTY_ASSIGNED_CONTEXT ( ( #200 ) ) GLOBAL_UNIT_ASSIGNED_CONTEXT ( ( #71, #230, #177 ) ) REPRESENTATION_CONTEXT ( 'NONE', 'WORKASPACE' ) );
#89 = DIRECTION ( 'NONE',  ( 0.0000000000000000000, 0.0000000000000000000, 1.000000000000000000 ) ) ;
#90 = DIRECTION ( 'NONE',  ( 1.000000000000000000, 0.0000000000000000000, 0.0000000000000000000 ) ) ;
#91 = DIRECTION ( 'NONE',  ( 1.000000000000000000, 0.0000000000000000000, -0.0000000000000000000 ) ) ;
#92 = DATE_AND_TIME ( #82, #21 ) ;
#93 = CIRCLE ( 'NONE', #100, 2380.000000000000000 ) ;
#94 = ORIENTED_EDGE ( 'NONE', *, *, #135, .T. ) ;
#95 = EDGE_CURVE ( 'NONE', #131, #36, #116, .T. ) ;
#96 = COORDINATED_UNIVERSAL_TIME_OFFSET ( 2, 0, .AHEAD. ) ;
#97 = CARTESIAN_POINT ( 'NONE',  ( -8.621900619342295100E-014, -12.70000000000617200, -0.03388469499427864500 ) ) ;
#98 = CIRCLE ( 'NONE', #176, 12.69999999999999900 ) ;
#99 = ORIENTED_EDGE ( 'NONE', *, *, #135, .F. ) ;
#100 = AXIS2_PLACEMENT_3D ( 'NONE', #19, #142, #108 ) ;
#101 = CARTESIAN_POINT ( 'NONE',  ( 12.69999999999999900, 2.442490654175340100E-015, -0.03388469499423339700 ) ) ;
#102 = LOCAL_TIME ( 10, 6, 19.00000000000000000, #127 ) ;
#103 = AXIS2_PLACEMENT_3D ( 'NONE', #48, #84, #46 ) ;
#104 = CIRCLE ( 'NONE', #157, 12.69999999999999900 ) ;
#105 = CARTESIAN_POINT ( 'NONE',  ( 4.996003610813200500E-016, 2.442490654175340100E-015, -0.03388469499423339700 ) ) ;
#106 = DIRECTION ( 'NONE',  ( 1.000000000000000000, 0.0000000000000000000, 0.0000000000000000000 ) ) ;
#107 = CC_DESIGN_PERSON_AND_ORGANIZATION_ASSIGNMENT ( #227, #233, ( #14 ) ) ;
#108 = DIRECTION ( 'NONE',  ( -3.907035426935399000E-016, 1.000000000000000000, 1.119552629874107400E-015 ) ) ;
#109 = CLOSED_SHELL ( 'NONE', ( #195, #111, #35, #218, #73 ) ) ;
#110 = APPROVAL_PERSON_ORGANIZATION ( #178, #125, #68 ) ;
#111 = ADVANCED_FACE ( 'NONE', ( #163 ), #63, .T. ) ;
#112 = CARTESIAN_POINT ( 'NONE',  ( -4.258779357145576800, 4.284174487512933300, 0.01156771414030993500 ) ) ;
#113 = CC_DESIGN_DATE_AND_TIME_ASSIGNMENT ( #58, #231, ( #232 ) ) ;
#114 = ORIENTED_EDGE ( 'NONE', *, *, #158, .F. ) ;
#115 = CARTESIAN_POINT ( 'NONE',  ( 8.517543373471923500, 4.284174487512938600, 0.0001367877299012836800 ) ) ;
#116 = CIRCLE ( 'NONE', #43, 12.69999999999999900 ) ;
#117 = CARTESIAN_POINT ( 'NONE',  ( 4.996003610813200500E-016, 2.442490654175340100E-015, -0.03388469499423339700 ) ) ;
#118 = EDGE_LOOP ( 'NONE', ( #162, #55, #219 ) ) ;
#119 = CARTESIAN_POINT ( 'NONE',  ( -8.615951036495300100E-014, -12.85239852735265800, -0.03470280508199863300 ) ) ;
#120 = SECURITY_CLASSIFICATION_LEVEL ( 'unclassified' ) ;
#121 = DIRECTION ( 'NONE',  ( 0.0000000000000000000, 0.0000000000000000000, 1.000000000000000000 ) ) ;
#122 = CARTESIAN_POINT ( 'NONE',  ( -12.69999999999999900, 3.997792089092478900E-015, -0.03388469499423339700 ) ) ;
#123 = ORIENTED_EDGE ( 'NONE', *, *, #158, .T. ) ;
#124 = CC_DESIGN_DATE_AND_TIME_ASSIGNMENT ( #184, #192, ( #75 ) ) ;
#125 = APPROVAL ( #175, 'UNSPECIFIED' ) ;
#126 = CARTESIAN_POINT ( 'NONE',  ( -12.77601298032641500, 12.85239852735237200, -0.06899483526590088900 ) ) ;
#127 = COORDINATED_UNIVERSAL_TIME_OFFSET ( 2, 0, .AHEAD. ) ;
#128 = CARTESIAN_POINT ( 'NONE',  ( -12.77626136745830500, -4.284174487513220200, -0.02272498273846737200 ) ) ;
#129 = APPROVAL_PERSON_ORGANIZATION ( #30, #78, #216 ) ;
#130 = FACE_OUTER_BOUND ( 'NONE', #34, .T. ) ;
#131 = VERTEX_POINT ( 'NONE', #77 ) ;
#132 = CARTESIAN_POINT ( 'NONE',  ( 8.517377781354762000, -12.85239852735265700, -0.04613350926007258500 ) ) ;
#133 = CARTESIAN_POINT ( 'NONE',  ( 12.77626136745713800, 4.284174487512939500, -0.02272498273849707400 ) ) ;
#134 = DIRECTION ( 'NONE',  ( 1.000000000000000000, 0.0000000000000000000, 0.0000000000000000000 ) ) ;
#135 = EDGE_CURVE ( 'NONE', #36, #172, #199, .T. ) ;
#136 = APPROVAL_STATUS ( 'not_yet_approved' ) ;
#137 = COORDINATED_UNIVERSAL_TIME_OFFSET ( 2, 0, .AHEAD. ) ;
#138 = LOCAL_TIME ( 10, 6, 19.00000000000000000, #53 ) ;
#139 = PRODUCT_DEFINITION_FORMATION_WITH_SPECIFIED_SOURCE ( 'ANY', '', #14, .NOT_KNOWN. ) ;
#140 = DIRECTION ( 'NONE',  ( 0.0000000000000000000, 0.0000000000000000000, 1.000000000000000000 ) ) ;
#141 = VERTEX_POINT ( 'NONE', #203 ) ;
#142 = DIRECTION ( 'NONE',  ( 1.000000000000000000, 3.907035426935399900E-016, -5.722465264600830200E-017 ) ) ;
#143 = CARTESIAN_POINT ( 'NONE',  ( -4.258696560937871700, 12.85239852735237600, -0.03470280508173514300 ) ) ;
#144 = CALENDAR_DATE ( 2019, 17, 1 ) ;
#145 = EDGE_CURVE ( 'NONE', #27, #36, #93, .T. ) ;
#146 = CARTESIAN_POINT ( 'NONE',  ( -4.258696560937861100, -12.85239852735266200, -0.03470280508173514300 ) ) ;
#147 = FACE_OUTER_BOUND ( 'NONE', #118, .T. ) ;
#148 = APPROVAL_DATE_TIME ( #6, #180 ) ;
#149 = PERSON_AND_ORGANIZATION_ROLE ( 'creator' ) ;
#150 = APPROVAL_STATUS ( 'not_yet_approved' ) ;
#151 = DATE_AND_TIME ( #160, #102 ) ;
#152 = CC_DESIGN_PERSON_AND_ORGANIZATION_ASSIGNMENT ( #196, #173, ( #139 ) ) ;
#153 =( BOUNDED_SURFACE ( )  B_SPLINE_SURFACE ( 3, 3, ( 
 ( #168, #10, #209, #229 ),
 ( #174, #191, #115, #133 ),
 ( #31, #188, #212, #213 ),
 ( #119, #12, #132, #167 ) ),
 .UNSPECIFIED., .F., .F., .F. ) 
 B_SPLINE_SURFACE_WITH_KNOTS ( ( 4, 4 ),
 ( 4, 4 ),
 ( 0.0000000000000000000, 1.000000000000000000 ),
 ( 0.0000000000000000000, 1.000000000000000000 ),
 .UNSPECIFIED. ) 
 GEOMETRIC_REPRESENTATION_ITEM ( )  RATIONAL_B_SPLINE_SURFACE ( (
 ( 1.000000000000000000, 0.9999975985579855300, 0.9999975985579855300, 1.000000000000000000),
 ( 0.9999902793263075700, 0.9999878779076367700, 0.9999878779076367700, 0.9999902793263075700),
 ( 0.9999902793263075700, 0.9999878779076367700, 0.9999878779076367700, 0.9999902793263075700),
 ( 1.000000000000000000, 0.9999975985579855300, 0.9999975985579855300, 1.000000000000000000) ) ) 
 REPRESENTATION_ITEM ( '' )  SURFACE ( )  );
#154 = APPROVAL_ROLE ( '' ) ;
#155 = VERTEX_POINT ( 'NONE', #56 ) ;
#156 = CC_DESIGN_APPROVAL ( #78, ( #139 ) ) ;
#157 = AXIS2_PLACEMENT_3D ( 'NONE', #74, #183, #90 ) ;
#158 = EDGE_CURVE ( 'NONE', #155, #141, #98, .T. ) ;
#159 = CARTESIAN_POINT ( 'NONE',  ( -8.517377781355795800, 12.85239852735237400, -0.04613350926004190800 ) ) ;
#160 = CALENDAR_DATE ( 2019, 17, 1 ) ;
#161 = CARTESIAN_POINT ( 'NONE',  ( -8.517543373472960900, 4.284174487512931500, 0.0001367877299319699600 ) ) ;
#162 = ORIENTED_EDGE ( 'NONE', *, *, #61, .F. ) ;
#163 = FACE_OUTER_BOUND ( 'NONE', #44, .T. ) ;
#164 = EDGE_LOOP ( 'NONE', ( #234, #76, #99 ) ) ;
#165 = CC_DESIGN_PERSON_AND_ORGANIZATION_ASSIGNMENT ( #225, #171, ( #232 ) ) ;
#166 = AXIS2_PLACEMENT_3D ( 'NONE', #47, #29, #211 ) ;
#167 = CARTESIAN_POINT ( 'NONE',  ( 12.77601298032524800, -12.85239852735265300, -0.06899483526592956100 ) ) ;
#168 = CARTESIAN_POINT ( 'NONE',  ( -9.620246563844474600E-014, 12.85239852735237800, -0.03470280508199863300 ) ) ;
#169 = AXIS2_PLACEMENT_3D ( 'NONE', #20, #89, #134 ) ;
#170 = SHAPE_DEFINITION_REPRESENTATION ( #217, #206 ) ;
#171 = PERSON_AND_ORGANIZATION_ROLE ( 'classification_officer' ) ;
#172 = VERTEX_POINT ( 'NONE', #5 ) ;
#173 = PERSON_AND_ORGANIZATION_ROLE ( 'design_supplier' ) ;
#174 = CARTESIAN_POINT ( 'NONE',  ( -9.285218233709729300E-014, 4.284174487512934200, 0.01156771414004645500 ) ) ;
#175 = APPROVAL_STATUS ( 'not_yet_approved' ) ;
#176 = AXIS2_PLACEMENT_3D ( 'NONE', #202, #223, #106 ) ;
#177 =( NAMED_UNIT ( * ) SI_UNIT ( $, .STERADIAN. ) SOLID_ANGLE_UNIT ( ) );
#178 = PERSON_AND_ORGANIZATION ( #28, #38 ) ;
#179 = LINE ( 'NONE', #122, #17 ) ;
#180 = APPROVAL ( #136, 'UNSPECIFIED' ) ;
#181 = DIRECTION ( 'NONE',  ( 1.000000000000000000, 0.0000000000000000000, 0.0000000000000000000 ) ) ;
#182 = CARTESIAN_POINT ( 'NONE',  ( -12.77626136745831100, 4.284174487512928800, -0.02272498273846838800 ) ) ;
#183 = DIRECTION ( 'NONE',  ( 0.0000000000000000000, 0.0000000000000000000, 1.000000000000000000 ) ) ;
#184 = DATE_AND_TIME ( #144, #204 ) ;
#185 = CC_DESIGN_SECURITY_CLASSIFICATION ( #232, ( #139 ) ) ;
#186 = DIRECTION ( 'NONE',  ( 0.0000000000000000000, 0.0000000000000000000, 1.000000000000000000 ) ) ;
#187 = PERSON_AND_ORGANIZATION_ROLE ( 'creator' ) ;
#188 = CARTESIAN_POINT ( 'NONE',  ( 4.258779357144677000, -4.284174487513214800, 0.01156771414004722700 ) ) ;
#189 = CIRCLE ( 'NONE', #52, 12.69999999999999900 ) ;
#190 = ORIENTED_EDGE ( 'NONE', *, *, #70, .T. ) ;
#191 = CARTESIAN_POINT ( 'NONE',  ( 4.258779357144673500, 4.284174487512936800, 0.01156771414004621100 ) ) ;
#192 = DATE_TIME_ROLE ( 'creation_date' ) ;
#193 = DIRECTION ( 'NONE',  ( 0.0000000000000000000, 0.0000000000000000000, 1.000000000000000000 ) ) ;
#194 =( BOUNDED_SURFACE ( )  B_SPLINE_SURFACE ( 3, 3, ( 
 ( #126, #159, #143, #40 ),
 ( #182, #161, #112, #7 ),
 ( #128, #23, #226, #22 ),
 ( #41, #59, #146, #60 ) ),
 .UNSPECIFIED., .F., .F., .T. ) 
 B_SPLINE_SURFACE_WITH_KNOTS ( ( 4, 4 ),
 ( 4, 4 ),
 ( 0.0000000000000000000, 1.000000000000000000 ),
 ( 0.0000000000000000000, 1.000000000000000000 ),
 .UNSPECIFIED. ) 
 GEOMETRIC_REPRESENTATION_ITEM ( )  RATIONAL_B_SPLINE_SURFACE ( (
 ( 1.000000000000000000, 0.9999975985579855300, 0.9999975985579855300, 1.000000000000000000),
 ( 0.9999902793263075700, 0.9999878779076367700, 0.9999878779076367700, 0.9999902793263075700),
 ( 0.9999902793263075700, 0.9999878779076367700, 0.9999878779076367700, 0.9999902793263075700),
 ( 1.000000000000000000, 0.9999975985579855300, 0.9999975985579855300, 1.000000000000000000) ) ) 
 REPRESENTATION_ITEM ( '' )  SURFACE ( )  );
#195 = ADVANCED_FACE ( 'NONE', ( #147 ), #194, .F. ) ;
#196 = PERSON_AND_ORGANIZATION ( #28, #38 ) ;
#197 = APPROVAL_PERSON_ORGANIZATION ( #9, #180, #154 ) ;
#198 = APPROVAL_DATE_TIME ( #151, #78 ) ;
#199 = CIRCLE ( 'NONE', #24, 12.69999999999999900 ) ;
#200 = UNCERTAINTY_MEASURE_WITH_UNIT (LENGTH_MEASURE( 1.000000000000000100E-005 ), #71, 'distance_accuracy_value', 'NONE');
#201 = EDGE_CURVE ( 'NONE', #172, #155, #45, .T. ) ;
#202 = CARTESIAN_POINT ( 'NONE',  ( 4.996003610813200500E-016, 2.442490654175340100E-015, 2.000000000000000000 ) ) ;
#203 = CARTESIAN_POINT ( 'NONE',  ( -12.69999999999999900, 3.997792089092478900E-015, 2.000000000000000000 ) ) ;
#204 = LOCAL_TIME ( 10, 6, 19.00000000000000000, #96 ) ;
#205 = PERSON_AND_ORGANIZATION ( #28, #38 ) ;
#206 = ADVANCED_BREP_SHAPE_REPRESENTATION ( '112-1255E UVFS pl-cv 25.4 F-5000', ( #26, #166 ), #88 ) ;
#207 = EDGE_LOOP ( 'NONE', ( #11, #32, #94, #85, #123 ) ) ;
#208 = PRODUCT_RELATED_PRODUCT_CATEGORY ( 'detail', '', ( #14 ) ) ;
#209 = CARTESIAN_POINT ( 'NONE',  ( 8.517377781354751300, 12.85239852735238100, -0.04613350926007258500 ) ) ;
#210 = AXIS2_PLACEMENT_3D ( 'NONE', #221, #2, #91 ) ;
#211 = DIRECTION ( 'NONE',  ( 1.000000000000000000, 0.0000000000000000000, 0.0000000000000000000 ) ) ;
#212 = CARTESIAN_POINT ( 'NONE',  ( 8.517543373471927000, -4.284174487513213100, 0.0001367877299023000900 ) ) ;
#213 = CARTESIAN_POINT ( 'NONE',  ( 12.77626136745714200, -4.284174487513209500, -0.02272498273849605700 ) ) ;
#214 = MECHANICAL_CONTEXT ( 'NONE', #235, 'mechanical' ) ;
#215 = CC_DESIGN_PERSON_AND_ORGANIZATION_ASSIGNMENT ( #205, #187, ( #75 ) ) ;
#216 = APPROVAL_ROLE ( '' ) ;
#217 = PRODUCT_DEFINITION_SHAPE ( 'NONE', 'NONE',  #75 ) ;
#218 = ADVANCED_FACE ( 'NONE', ( #87 ), #49, .T. ) ;
#219 = ORIENTED_EDGE ( 'NONE', *, *, #95, .F. ) ;
#220 = EDGE_CURVE ( 'NONE', #172, #27, #189, .T. ) ;
#221 = CARTESIAN_POINT ( 'NONE',  ( 0.0000000000000000000, 26.11199999999999800, 2.000000000000000000 ) ) ;
#222 = CARTESIAN_POINT ( 'NONE',  ( 4.996003610813200500E-016, 2.442490654175340100E-015, -0.03388469499423339700 ) ) ;
#223 = DIRECTION ( 'NONE',  ( -0.0000000000000000000, -0.0000000000000000000, -1.000000000000000000 ) ) ;
#224 = ORIENTED_EDGE ( 'NONE', *, *, #201, .F. ) ;
#225 = PERSON_AND_ORGANIZATION ( #28, #38 ) ;
#226 = CARTESIAN_POINT ( 'NONE',  ( -4.258779357145571400, -4.284174487513217500, 0.01156771414031095500 ) ) ;
#227 = PERSON_AND_ORGANIZATION ( #28, #38 ) ;
#228 = COORDINATED_UNIVERSAL_TIME_OFFSET ( 2, 0, .AHEAD. ) ;
#229 = CARTESIAN_POINT ( 'NONE',  ( 12.77601298032523800, 12.85239852735238300, -0.06899483526592956100 ) ) ;
#230 =( NAMED_UNIT ( * ) PLANE_ANGLE_UNIT ( ) SI_UNIT ( $, .RADIAN. ) );
#231 = DATE_TIME_ROLE ( 'classification_date' ) ;
#232 = SECURITY_CLASSIFICATION ( '', '', #120 ) ;
#233 = PERSON_AND_ORGANIZATION_ROLE ( 'design_owner' ) ;
#234 = ORIENTED_EDGE ( 'NONE', *, *, #145, .F. ) ;
#235 = APPLICATION_CONTEXT ( 'configuration controlled 3d designs of mechanical parts and assemblies' ) ;
ENDSEC;
END-ISO-10303-21;
