ISO-10303-21;
HEADER;
FILE_DESCRIPTION (( 'STEP AP203' ),
    '1' );
FILE_NAME ('112-1245E UVFS pl-cv 25.4 F-1000.STEP',
    '2019-01-17T08:00:29',
    ( '' ),
    ( '' ),
    'SwSTEP 2.0',
    'SolidWorks 2017',
    '' );
FILE_SCHEMA (( 'CONFIG_CONTROL_DESIGN' ));
ENDSEC;

DATA;
#1 = CARTESIAN_POINT ( 'NONE',  ( 9.941612710897718700E-014, -4.285162168591964100, 0.05784971418186770500 ) ) ;
#2 = CARTESIAN_POINT ( 'NONE',  ( 4.259883931287640200, -4.285162168591965000, 0.05784971418186681000 ) ) ;
#3 = VERTEX_POINT ( 'NONE', #84 ) ;
#4 = EDGE_CURVE ( 'NONE', #158, #37, #77, .T. ) ;
#5 = COORDINATED_UNIVERSAL_TIME_OFFSET ( 2, 0, .AHEAD. ) ;
#6 = PERSON_AND_ORGANIZATION_ROLE ( 'design_owner' ) ;
#7 = EDGE_CURVE ( 'NONE', #83, #37, #105, .T. ) ;
#8 = PRODUCT ( '112-1245E UVFS pl-cv 25.4 F-1000', '112-1245E UVFS pl-cv 25.4 F-1000', '', ( #108 ) ) ;
#9 = FACE_OUTER_BOUND ( 'NONE', #113, .T. ) ;
#10 = AXIS2_PLACEMENT_3D ( 'NONE', #38, #220, #35 ) ;
#11 = ADVANCED_FACE ( 'NONE', ( #9 ), #102, .T. ) ;
#12 = DATE_AND_TIME ( #160, #88 ) ;
#13 = CIRCLE ( 'NONE', #208, 12.69999999999999900 ) ;
#14 = CARTESIAN_POINT ( 'NONE',  ( 4.996003610813200500E-016, 2.442490654175340100E-015, 3.800000000000000300 ) ) ;
#15 = CARTESIAN_POINT ( 'NONE',  ( 4.996003610813200500E-016, 2.442490654175340100E-015, -0.1694168263611179900 ) ) ;
#16 = DIRECTION ( 'NONE',  ( 0.0000000000000000000, 0.0000000000000000000, 1.000000000000000000 ) ) ;
#17 = ORIENTED_EDGE ( 'NONE', *, *, #201, .F. ) ;
#18 = CC_DESIGN_APPROVAL ( #157, ( #229 ) ) ;
#19 = ORIENTED_EDGE ( 'NONE', *, *, #163, .T. ) ;
#20 = CC_DESIGN_APPROVAL ( #115, ( #43 ) ) ;
#21 = APPROVAL_STATUS ( 'not_yet_approved' ) ;
#22 = CIRCLE ( 'NONE', #111, 12.69999999999999900 ) ;
#23 =( LENGTH_UNIT ( ) NAMED_UNIT ( * ) SI_UNIT ( .MILLI., .METRE. ) );
#24 = AXIS2_PLACEMENT_3D ( 'NONE', #15, #148, #146 ) ;
#25 = CARTESIAN_POINT ( 'NONE',  ( 0.0000000000000000000, 0.0000000000000000000, 0.0000000000000000000 ) ) ;
#26 = CARTESIAN_POINT ( 'NONE',  ( 4.996003610813200500E-016, 2.442490654175340100E-015, -0.1694168263611179900 ) ) ;
#27 =( BOUNDED_SURFACE ( )  B_SPLINE_SURFACE ( 3, 3, ( 
 ( #182, #202, #203, #55 ),
 ( #226, #53, #185, #223 ),
 ( #128, #200, #59, #149 ),
 ( #120, #103, #188, #125 ) ),
 .UNSPECIFIED., .F., .F., .T. ) 
 B_SPLINE_SURFACE_WITH_KNOTS ( ( 4, 4 ),
 ( 4, 4 ),
 ( 0.0000000000000000000, 1.000000000000000000 ),
 ( 0.0000000000000000000, 1.000000000000000000 ),
 .UNSPECIFIED. ) 
 GEOMETRIC_REPRESENTATION_ITEM ( )  RATIONAL_B_SPLINE_SURFACE ( (
 ( 1.000000000000000000, 0.9999399763621843500, 0.9999399763621843500, 1.000000000000000000),
 ( 0.9997570440695202600, 0.9996970350148033400, 0.9996970350148033400, 0.9997570440695202600),
 ( 0.9997570440695202600, 0.9996970350148033400, 0.9996970350148033400, 0.9997570440695202600),
 ( 1.000000000000000000, 0.9999399763621843500, 0.9999399763621843500, 1.000000000000000000) ) ) 
 REPRESENTATION_ITEM ( '' )  SURFACE ( )  );
#28 = CC_DESIGN_PERSON_AND_ORGANIZATION_ASSIGNMENT ( #189, #141, ( #43 ) ) ;
#29 = CIRCLE ( 'NONE', #101, 12.69999999999999900 ) ;
#30 = CARTESIAN_POINT ( 'NONE',  ( 1.035512426936251600E-013, 12.85236318909003100, -0.1735069777521469600 ) ) ;
#31 = ADVANCED_FACE ( 'NONE', ( #165 ), #207, .T. ) ;
#32 = PERSON_AND_ORGANIZATION ( #109, #135 ) ;
#33 = ORIENTED_EDGE ( 'NONE', *, *, #123, .F. ) ;
#34 = MANIFOLD_SOLID_BREP ( 'Imported1', #155 ) ;
#35 = DIRECTION ( 'NONE',  ( 1.000000000000000000, 0.0000000000000000000, 0.0000000000000000000 ) ) ;
#36 = CALENDAR_DATE ( 2019, 17, 1 ) ;
#37 = VERTEX_POINT ( 'NONE', #122 ) ;
#38 = CARTESIAN_POINT ( 'NONE',  ( 4.996003610813200500E-016, 2.442490654175340100E-015, -0.1694168263611179900 ) ) ;
#39 = PERSON_AND_ORGANIZATION ( #109, #135 ) ;
#40 = DIRECTION ( 'NONE',  ( 1.000000000000000000, 0.0000000000000000000, 0.0000000000000000000 ) ) ;
#41 = APPROVAL_ROLE ( '' ) ;
#42 = APPROVAL_STATUS ( 'not_yet_approved' ) ;
#43 = PRODUCT_DEFINITION_FORMATION_WITH_SPECIFIED_SOURCE ( 'ANY', '', #8, .NOT_KNOWN. ) ;
#44 = APPROVAL_DATE_TIME ( #132, #57 ) ;
#45 = DIRECTION ( 'NONE',  ( 0.0000000000000000000, 0.0000000000000000000, 1.000000000000000000 ) ) ;
#46 = CALENDAR_DATE ( 2019, 17, 1 ) ;
#47 = ORIENTED_EDGE ( 'NONE', *, *, #95, .T. ) ;
#48 = CARTESIAN_POINT ( 'NONE',  ( 12.77773415995051900, 4.285162168591924100, -0.1136269238676412100 ) ) ;
#49 = CALENDAR_DATE ( 2019, 17, 1 ) ;
#50 = CARTESIAN_POINT ( 'NONE',  ( 1.015084725909551400E-013, 4.285162168591927700, 0.05784971418186911400 ) ) ;
#51 = LOCAL_TIME ( 10, 0, 29.00000000000000000, #151 ) ;
#52 = CARTESIAN_POINT ( 'NONE',  ( 9.727573129092172400E-014, -12.85236318909006700, -0.1735069777521469600 ) ) ;
#53 = CARTESIAN_POINT ( 'NONE',  ( -8.519384321979993400, 4.285162168591929400, 0.0006874037421721024800 ) ) ;
#54 = CARTESIAN_POINT ( 'NONE',  ( 12.69999999999999900, 2.442490654175340100E-015, -0.1694168263611179900 ) ) ;
#55 = CARTESIAN_POINT ( 'NONE',  ( -1.040834085586084300E-014, 12.85236318909003100, -0.1735069777522020300 ) ) ;
#56 = FACE_OUTER_BOUND ( 'NONE', #152, .T. ) ;
#57 = APPROVAL ( #190, 'UNSPECIFIED' ) ;
#58 = VERTEX_POINT ( 'NONE', #118 ) ;
#59 = CARTESIAN_POINT ( 'NONE',  ( -4.259883931287675700, -4.285162168591963200, 0.05784971418181248500 ) ) ;
#60 = SECURITY_CLASSIFICATION_LEVEL ( 'unclassified' ) ;
#61 = DIRECTION ( 'NONE',  ( 0.0000000000000000000, 0.0000000000000000000, 1.000000000000000000 ) ) ;
#62 = EDGE_LOOP ( 'NONE', ( #215, #19, #75, #47, #196 ) ) ;
#63 = APPROVAL_ROLE ( '' ) ;
#64 = COORDINATED_UNIVERSAL_TIME_OFFSET ( 2, 0, .AHEAD. ) ;
#65 = ORIENTED_EDGE ( 'NONE', *, *, #201, .T. ) ;
#66 = ORIENTED_EDGE ( 'NONE', *, *, #95, .F. ) ;
#67 = DIRECTION ( 'NONE',  ( 0.0000000000000000000, 0.0000000000000000000, 1.000000000000000000 ) ) ;
#68 = DATE_AND_TIME ( #49, #51 ) ;
#69 = CIRCLE ( 'NONE', #10, 12.69999999999999900 ) ;
#70 = DIRECTION ( 'NONE',  ( -0.0000000000000000000, -0.0000000000000000000, -1.000000000000000000 ) ) ;
#71 = VECTOR ( 'NONE', #129, 1000.000000000000000 ) ;
#72 = CC_DESIGN_PERSON_AND_ORGANIZATION_ASSIGNMENT ( #32, #171, ( #43 ) ) ;
#73 = AXIS2_PLACEMENT_3D ( 'NONE', #14, #184, #127 ) ;
#74 = LOCAL_TIME ( 10, 0, 29.00000000000000000, #5 ) ;
#75 = ORIENTED_EDGE ( 'NONE', *, *, #233, .T. ) ;
#76 = DATE_AND_TIME ( #224, #140 ) ;
#77 = LINE ( 'NONE', #159, #219 ) ;
#78 = DATE_TIME_ROLE ( 'classification_date' ) ;
#79 = PERSON_AND_ORGANIZATION_ROLE ( 'creator' ) ;
#80 = APPLICATION_PROTOCOL_DEFINITION ( 'international standard', 'config_control_design', 1994, #212 ) ;
#81 = EDGE_CURVE ( 'NONE', #204, #3, #69, .T. ) ;
#82 = PERSON_AND_ORGANIZATION ( #109, #135 ) ;
#83 = VERTEX_POINT ( 'NONE', #183 ) ;
#84 = CARTESIAN_POINT ( 'NONE',  ( 1.035149079464328300E-013, 12.70000000000013600, -0.1694168263610932600 ) ) ;
#85 = DIRECTION ( 'NONE',  ( 1.000000000000000000, 0.0000000000000000000, 0.0000000000000000000 ) ) ;
#86 = AXIS2_PLACEMENT_3D ( 'NONE', #131, #227, #187 ) ;
#87 = CARTESIAN_POINT ( 'NONE',  ( 12.77152568453121300, -12.85236318909007000, -0.3449002983308922500 ) ) ;
#88 = LOCAL_TIME ( 10, 0, 29.00000000000000000, #145 ) ;
#89 = EDGE_CURVE ( 'NONE', #3, #58, #99, .T. ) ;
#90 = EDGE_LOOP ( 'NONE', ( #126, #142, #194, #65, #66 ) ) ;
#91 = CARTESIAN_POINT ( 'NONE',  ( 8.515244903559599600, -12.85236318909006800, -0.2306415140344286700 ) ) ;
#92 = PERSON_AND_ORGANIZATION_ROLE ( 'classification_officer' ) ;
#93 = CC_DESIGN_SECURITY_CLASSIFICATION ( #104, ( #43 ) ) ;
#94 = APPROVAL_DATE_TIME ( #68, #157 ) ;
#95 = EDGE_CURVE ( 'NONE', #204, #83, #232, .T. ) ;
#96 = APPROVAL_ROLE ( '' ) ;
#97 = DIRECTION ( 'NONE',  ( 1.000000000000000000, 0.0000000000000000000, 0.0000000000000000000 ) ) ;
#98 = COORDINATED_UNIVERSAL_TIME_OFFSET ( 2, 0, .AHEAD. ) ;
#99 = CIRCLE ( 'NONE', #86, 476.1000000000000200 ) ;
#100 = CARTESIAN_POINT ( 'NONE',  ( 4.257814128899722700, 12.85236318909002900, -0.1735069777521478800 ) ) ;
#101 = AXIS2_PLACEMENT_3D ( 'NONE', #26, #45, #97 ) ;
#102 = PLANE ( 'NONE',  #143 ) ;
#103 = CARTESIAN_POINT ( 'NONE',  ( -8.515244903559763000, -12.85236318909006500, -0.2306415140344830200 ) ) ;
#104 = SECURITY_CLASSIFICATION ( '', '', #60 ) ;
#105 = CIRCLE ( 'NONE', #192, 12.69999999999999900 ) ;
#106 = CARTESIAN_POINT ( 'NONE',  ( 12.77773415995051700, -4.285162168591967600, -0.1136269238676426300 ) ) ;
#107 = ORIENTED_EDGE ( 'NONE', *, *, #81, .F. ) ;
#108 = MECHANICAL_CONTEXT ( 'NONE', #167, 'mechanical' ) ;
#109 = PERSON ( 'UNSPECIFIED', 'UNSPECIFIED', 'UNSPECIFIED', ('UNSPECIFIED'), ('UNSPECIFIED'), ('UNSPECIFIED') ) ;
#110 = CARTESIAN_POINT ( 'NONE',  ( -12.69999999999999900, 3.997792089092478900E-015, -0.1694168263611179900 ) ) ;
#111 = AXIS2_PLACEMENT_3D ( 'NONE', #173, #175, #217 ) ;
#112 =( BOUNDED_SURFACE ( )  B_SPLINE_SURFACE ( 3, 3, ( 
 ( #30, #100, #221, #197 ),
 ( #50, #144, #114, #48 ),
 ( #1, #2, #176, #106 ),
 ( #52, #230, #91, #87 ) ),
 .UNSPECIFIED., .F., .F., .F. ) 
 B_SPLINE_SURFACE_WITH_KNOTS ( ( 4, 4 ),
 ( 4, 4 ),
 ( 0.0000000000000000000, 1.000000000000000000 ),
 ( 0.0000000000000000000, 1.000000000000000000 ),
 .UNSPECIFIED. ) 
 GEOMETRIC_REPRESENTATION_ITEM ( )  RATIONAL_B_SPLINE_SURFACE ( (
 ( 1.000000000000000000, 0.9999399763621843500, 0.9999399763621843500, 1.000000000000000000),
 ( 0.9997570440695202600, 0.9996970350148033400, 0.9996970350148033400, 0.9997570440695202600),
 ( 0.9997570440695202600, 0.9996970350148033400, 0.9996970350148033400, 0.9997570440695202600),
 ( 1.000000000000000000, 0.9999399763621843500, 0.9999399763621843500, 1.000000000000000000) ) ) 
 REPRESENTATION_ITEM ( '' )  SURFACE ( )  );
#113 = EDGE_LOOP ( 'NONE', ( #117, #17 ) ) ;
#114 = CARTESIAN_POINT ( 'NONE',  ( 8.519384321979837100, 4.285162168591925000, 0.0006874037422264209000 ) ) ;
#115 = APPROVAL ( #21, 'UNSPECIFIED' ) ;
#116 = PRODUCT_DEFINITION_SHAPE ( 'NONE', 'NONE',  #229 ) ;
#117 = ORIENTED_EDGE ( 'NONE', *, *, #7, .F. ) ;
#118 = CARTESIAN_POINT ( 'NONE',  ( 9.731379196163179000E-014, -12.70000000000019300, -0.1694168263610932600 ) ) ;
#119 = UNCERTAINTY_MEASURE_WITH_UNIT (LENGTH_MEASURE( 1.000000000000000100E-005 ), #23, 'distance_accuracy_value', 'NONE');
#120 = CARTESIAN_POINT ( 'NONE',  ( -12.77152568453149900, -12.85236318909006300, -0.3449002983309523700 ) ) ;
#121 = CARTESIAN_POINT ( 'NONE',  ( 0.0000000000000000000, 26.11199999999999800, 3.799999999999999800 ) ) ;
#122 = CARTESIAN_POINT ( 'NONE',  ( -12.69999999999999900, 3.997792089092478900E-015, 3.800000000000000300 ) ) ;
#123 = EDGE_CURVE ( 'NONE', #3, #158, #29, .T. ) ;
#124 = APPROVAL_PERSON_ORGANIZATION ( #174, #157, #63 ) ;
#125 = CARTESIAN_POINT ( 'NONE',  ( -1.734723475976807100E-014, -12.85236318909006700, -0.1735069777522020300 ) ) ;
#126 = ORIENTED_EDGE ( 'NONE', *, *, #81, .T. ) ;
#127 = DIRECTION ( 'NONE',  ( 1.000000000000000000, 0.0000000000000000000, 0.0000000000000000000 ) ) ;
#128 = CARTESIAN_POINT ( 'NONE',  ( -12.77773415995079800, -4.285162168591960500, -0.1136269238677027500 ) ) ;
#129 = DIRECTION ( 'NONE',  ( 0.0000000000000000000, 0.0000000000000000000, 1.000000000000000000 ) ) ;
#130 = ADVANCED_BREP_SHAPE_REPRESENTATION ( '112-1245E UVFS pl-cv 25.4 F-1000', ( #34, #198 ), #133 ) ;
#131 = CARTESIAN_POINT ( 'NONE',  ( 0.0000000000000000000, -5.684341886080800200E-014, -476.1000000000000200 ) ) ;
#132 = DATE_AND_TIME ( #46, #193 ) ;
#133 =( GEOMETRIC_REPRESENTATION_CONTEXT ( 3 ) GLOBAL_UNCERTAINTY_ASSIGNED_CONTEXT ( ( #119 ) ) GLOBAL_UNIT_ASSIGNED_CONTEXT ( ( #23, #154, #134 ) ) REPRESENTATION_CONTEXT ( 'NONE', 'WORKASPACE' ) );
#134 =( NAMED_UNIT ( * ) SI_UNIT ( $, .STERADIAN. ) SOLID_ANGLE_UNIT ( ) );
#135 = ORGANIZATION ( 'UNSPECIFIED', 'UNSPECIFIED', '' ) ;
#136 = ORIENTED_EDGE ( 'NONE', *, *, #89, .F. ) ;
#137 = APPLICATION_PROTOCOL_DEFINITION ( 'international standard', 'config_control_design', 1994, #167 ) ;
#138 = CC_DESIGN_PERSON_AND_ORGANIZATION_ASSIGNMENT ( #168, #92, ( #104 ) ) ;
#139 = CARTESIAN_POINT ( 'NONE',  ( 4.996003610813200500E-016, 2.442490654175340100E-015, -0.1694168263611179900 ) ) ;
#140 = LOCAL_TIME ( 10, 0, 29.00000000000000000, #98 ) ;
#141 = PERSON_AND_ORGANIZATION_ROLE ( 'creator' ) ;
#142 = ORIENTED_EDGE ( 'NONE', *, *, #123, .T. ) ;
#143 = AXIS2_PLACEMENT_3D ( 'NONE', #121, #199, #222 ) ;
#144 = CARTESIAN_POINT ( 'NONE',  ( 4.259883931287642000, 4.285162168591926800, 0.05784971418186821800 ) ) ;
#145 = COORDINATED_UNIVERSAL_TIME_OFFSET ( 2, 0, .AHEAD. ) ;
#146 = DIRECTION ( 'NONE',  ( 1.000000000000000000, 0.0000000000000000000, 0.0000000000000000000 ) ) ;
#147 = APPROVAL_PERSON_ORGANIZATION ( #231, #57, #96 ) ;
#148 = DIRECTION ( 'NONE',  ( 0.0000000000000000000, 0.0000000000000000000, 1.000000000000000000 ) ) ;
#149 = CARTESIAN_POINT ( 'NONE',  ( -1.387778780781445500E-014, -4.285162168591964100, 0.05784971418181260300 ) ) ;
#150 = CC_DESIGN_APPROVAL ( #57, ( #104 ) ) ;
#151 = COORDINATED_UNIVERSAL_TIME_OFFSET ( 2, 0, .AHEAD. ) ;
#152 = EDGE_LOOP ( 'NONE', ( #136, #107, #235 ) ) ;
#153 = DIRECTION ( 'NONE',  ( 1.000000000000000000, 0.0000000000000000000, 0.0000000000000000000 ) ) ;
#154 =( NAMED_UNIT ( * ) PLANE_ANGLE_UNIT ( ) SI_UNIT ( $, .RADIAN. ) );
#155 = CLOSED_SHELL ( 'NONE', ( #195, #31, #178, #218, #11 ) ) ;
#156 = APPROVAL_PERSON_ORGANIZATION ( #82, #115, #41 ) ;
#157 = APPROVAL ( #42, 'UNSPECIFIED' ) ;
#158 = VERTEX_POINT ( 'NONE', #110 ) ;
#159 = CARTESIAN_POINT ( 'NONE',  ( -12.69999999999999900, 3.997792089092478900E-015, -0.1694168263611179900 ) ) ;
#160 = CALENDAR_DATE ( 2019, 17, 1 ) ;
#161 = CARTESIAN_POINT ( 'NONE',  ( 4.996003610813200500E-016, 2.442490654175340100E-015, -0.1694168263611179900 ) ) ;
#162 = CIRCLE ( 'NONE', #73, 12.69999999999999900 ) ;
#163 = EDGE_CURVE ( 'NONE', #158, #58, #22, .T. ) ;
#164 = CARTESIAN_POINT ( 'NONE',  ( 12.69999999999999900, 2.442490654175340100E-015, -0.1694168263611179900 ) ) ;
#165 = FACE_OUTER_BOUND ( 'NONE', #90, .T. ) ;
#166 = CC_DESIGN_PERSON_AND_ORGANIZATION_ASSIGNMENT ( #39, #79, ( #229 ) ) ;
#167 = APPLICATION_CONTEXT ( 'configuration controlled 3d designs of mechanical parts and assemblies' ) ;
#168 = PERSON_AND_ORGANIZATION ( #109, #135 ) ;
#169 = ORIENTED_EDGE ( 'NONE', *, *, #89, .T. ) ;
#170 = DIRECTION ( 'NONE',  ( 0.0000000000000000000, 0.0000000000000000000, 1.000000000000000000 ) ) ;
#171 = PERSON_AND_ORGANIZATION_ROLE ( 'design_supplier' ) ;
#172 = EDGE_LOOP ( 'NONE', ( #33, #169, #211 ) ) ;
#173 = CARTESIAN_POINT ( 'NONE',  ( 4.996003610813200500E-016, 2.442490654175340100E-015, -0.1694168263611179900 ) ) ;
#174 = PERSON_AND_ORGANIZATION ( #109, #135 ) ;
#175 = DIRECTION ( 'NONE',  ( 0.0000000000000000000, 0.0000000000000000000, 1.000000000000000000 ) ) ;
#176 = CARTESIAN_POINT ( 'NONE',  ( 8.519384321979837100, -4.285162168591966700, 0.0006874037422250249900 ) ) ;
#177 = APPROVAL_DATE_TIME ( #191, #115 ) ;
#178 = ADVANCED_FACE ( 'NONE', ( #56 ), #112, .F. ) ;
#179 = PRODUCT_RELATED_PRODUCT_CATEGORY ( 'detail', '', ( #8 ) ) ;
#180 = CARTESIAN_POINT ( 'NONE',  ( 4.996003610813200500E-016, 2.442490654175340100E-015, 3.800000000000000300 ) ) ;
#181 = DESIGN_CONTEXT ( 'detailed design', #212, 'design' ) ;
#182 = CARTESIAN_POINT ( 'NONE',  ( -12.77152568453149200, 12.85236318909003500, -0.3449002983309523700 ) ) ;
#183 = CARTESIAN_POINT ( 'NONE',  ( 12.69999999999999900, 2.442490654175340100E-015, 3.800000000000000300 ) ) ;
#184 = DIRECTION ( 'NONE',  ( -0.0000000000000000000, -0.0000000000000000000, -1.000000000000000000 ) ) ;
#185 = CARTESIAN_POINT ( 'NONE',  ( -4.259883931287674800, 4.285162168591928600, 0.05784971418181394900 ) ) ;
#186 = AXIS2_PLACEMENT_3D ( 'NONE', #161, #16, #209 ) ;
#187 = DIRECTION ( 'NONE',  ( 2.441384245984628400E-016, 1.000000000000000000, -4.663822829763312500E-016 ) ) ;
#188 = CARTESIAN_POINT ( 'NONE',  ( -4.257814128899759100, -12.85236318909006500, -0.1735069777522022200 ) ) ;
#189 = PERSON_AND_ORGANIZATION ( #109, #135 ) ;
#190 = APPROVAL_STATUS ( 'not_yet_approved' ) ;
#191 = DATE_AND_TIME ( #36, #74 ) ;
#192 = AXIS2_PLACEMENT_3D ( 'NONE', #180, #70, #85 ) ;
#193 = LOCAL_TIME ( 10, 0, 29.00000000000000000, #64 ) ;
#194 = ORIENTED_EDGE ( 'NONE', *, *, #4, .T. ) ;
#195 = ADVANCED_FACE ( 'NONE', ( #225 ), #27, .F. ) ;
#196 = ORIENTED_EDGE ( 'NONE', *, *, #7, .T. ) ;
#197 = CARTESIAN_POINT ( 'NONE',  ( 12.77152568453121800, 12.85236318909002800, -0.3449002983308922500 ) ) ;
#198 = AXIS2_PLACEMENT_3D ( 'NONE', #25, #61, #40 ) ;
#199 = DIRECTION ( 'NONE',  ( 0.0000000000000000000, 0.0000000000000000000, 1.000000000000000000 ) ) ;
#200 = CARTESIAN_POINT ( 'NONE',  ( -8.519384321979997000, -4.285162168591961400, 0.0006874037421706794600 ) ) ;
#201 = EDGE_CURVE ( 'NONE', #37, #83, #162, .T. ) ;
#202 = CARTESIAN_POINT ( 'NONE',  ( -8.515244903559757700, 12.85236318909003300, -0.2306415140344830200 ) ) ;
#203 = CARTESIAN_POINT ( 'NONE',  ( -4.257814128899752000, 12.85236318909003300, -0.1735069777522022000 ) ) ;
#204 = VERTEX_POINT ( 'NONE', #54 ) ;
#205 = CC_DESIGN_DATE_AND_TIME_ASSIGNMENT ( #12, #78, ( #104 ) ) ;
#206 = SHAPE_DEFINITION_REPRESENTATION ( #116, #130 ) ;
#207 = CYLINDRICAL_SURFACE ( 'NONE', #24, 12.69999999999999900 ) ;
#208 = AXIS2_PLACEMENT_3D ( 'NONE', #139, #170, #153 ) ;
#209 = DIRECTION ( 'NONE',  ( 1.000000000000000000, 0.0000000000000000000, 0.0000000000000000000 ) ) ;
#210 = DATE_TIME_ROLE ( 'creation_date' ) ;
#211 = ORIENTED_EDGE ( 'NONE', *, *, #163, .F. ) ;
#212 = APPLICATION_CONTEXT ( 'configuration controlled 3d designs of mechanical parts and assemblies' ) ;
#213 = CC_DESIGN_PERSON_AND_ORGANIZATION_ASSIGNMENT ( #234, #6, ( #8 ) ) ;
#214 = FACE_OUTER_BOUND ( 'NONE', #62, .T. ) ;
#215 = ORIENTED_EDGE ( 'NONE', *, *, #4, .F. ) ;
#216 = CC_DESIGN_DATE_AND_TIME_ASSIGNMENT ( #76, #210, ( #229 ) ) ;
#217 = DIRECTION ( 'NONE',  ( 1.000000000000000000, 0.0000000000000000000, 0.0000000000000000000 ) ) ;
#218 = ADVANCED_FACE ( 'NONE', ( #214 ), #228, .T. ) ;
#219 = VECTOR ( 'NONE', #67, 1000.000000000000000 ) ;
#220 = DIRECTION ( 'NONE',  ( 0.0000000000000000000, 0.0000000000000000000, 1.000000000000000000 ) ) ;
#221 = CARTESIAN_POINT ( 'NONE',  ( 8.515244903559606700, 12.85236318909002900, -0.2306415140344286700 ) ) ;
#222 = DIRECTION ( 'NONE',  ( 1.000000000000000000, 0.0000000000000000000, -0.0000000000000000000 ) ) ;
#223 = CARTESIAN_POINT ( 'NONE',  ( -1.214306433183765000E-014, 4.285162168591927700, 0.05784971418181406700 ) ) ;
#224 = CALENDAR_DATE ( 2019, 17, 1 ) ;
#225 = FACE_OUTER_BOUND ( 'NONE', #172, .T. ) ;
#226 = CARTESIAN_POINT ( 'NONE',  ( -12.77773415995079600, 4.285162168591931200, -0.1136269238677013500 ) ) ;
#227 = DIRECTION ( 'NONE',  ( 1.000000000000000000, -2.441384245984629900E-016, -2.109852854684000100E-016 ) ) ;
#228 = CYLINDRICAL_SURFACE ( 'NONE', #186, 12.69999999999999900 ) ;
#229 = PRODUCT_DEFINITION ( 'UNKNOWN', '', #43, #181 ) ;
#230 = CARTESIAN_POINT ( 'NONE',  ( 4.257814128899716400, -12.85236318909006800, -0.1735069777521478800 ) ) ;
#231 = PERSON_AND_ORGANIZATION ( #109, #135 ) ;
#232 = LINE ( 'NONE', #164, #71 ) ;
#233 = EDGE_CURVE ( 'NONE', #58, #204, #13, .T. ) ;
#234 = PERSON_AND_ORGANIZATION ( #109, #135 ) ;
#235 = ORIENTED_EDGE ( 'NONE', *, *, #233, .F. ) ;
ENDSEC;
END-ISO-10303-21;
