ISO-10303-21;
HEADER;
FILE_DESCRIPTION (( 'STEP AP203' ),
    '1' );
FILE_NAME ('112-1239E UVFS pl-cv 25.4 F-750.STEP',
    '2019-01-17T07:47:01',
    ( '' ),
    ( '' ),
    'SwSTEP 2.0',
    'SolidWorks 2017',
    '' );
FILE_SCHEMA (( 'CONFIG_CONTROL_DESIGN' ));
ENDSEC;

DATA;
#1 =( LENGTH_UNIT ( ) NAMED_UNIT ( * ) SI_UNIT ( .MILLI., .METRE. ) );
#2 = CARTESIAN_POINT ( 'NONE',  ( 12.76789013489975800, -12.85233455309657200, -0.4598333361223979100 ) ) ;
#3 = LOCAL_TIME ( 9, 47, 1.000000000000000000, #212 ) ;
#4 = ORIENTED_EDGE ( 'NONE', *, *, #147, .F. ) ;
#5 = DIRECTION ( 'NONE',  ( 0.0000000000000000000, 1.000000000000000000, 0.0000000000000000000 ) ) ;
#6 = DATE_AND_TIME ( #46, #38 ) ;
#7 = VERTEX_POINT ( 'NONE', #162 ) ;
#8 = PERSON_AND_ORGANIZATION_ROLE ( 'classification_officer' ) ;
#9 = CC_DESIGN_PERSON_AND_ORGANIZATION_ASSIGNMENT ( #119, #227, ( #193 ) ) ;
#10 = AXIS2_PLACEMENT_3D ( 'NONE', #130, #159, #110 ) ;
#11 = PERSON_AND_ORGANIZATION ( #128, #181 ) ;
#12 = PRODUCT_RELATED_PRODUCT_CATEGORY ( 'detail', '', ( #104 ) ) ;
#13 = CIRCLE ( 'NONE', #203, 12.69999999999999900 ) ;
#14 = APPROVAL_DATE_TIME ( #158, #187 ) ;
#15 = CARTESIAN_POINT ( 'NONE',  ( 4.996003610813200500E-016, 2.442490654175340100E-015, -0.2259045545614270000 ) ) ;
#16 = DIRECTION ( 'NONE',  ( 0.0000000000000000000, 0.0000000000000000000, 1.000000000000000000 ) ) ;
#17 = COORDINATED_UNIVERSAL_TIME_OFFSET ( 2, 0, .AHEAD. ) ;
#18 = CARTESIAN_POINT ( 'NONE',  ( -8.513516606510375300, 12.85233455309654000, -0.3075247100037145100 ) ) ;
#19 = CARTESIAN_POINT ( 'NONE',  ( 4.257099016543052400, -12.85233455309657600, -0.2313582051019502700 ) ) ;
#20 = EDGE_CURVE ( 'NONE', #213, #7, #84, .T. ) ;
#21 = DIRECTION ( 'NONE',  ( 1.000000000000000000, 0.0000000000000000000, 0.0000000000000000000 ) ) ;
#22 = COORDINATED_UNIVERSAL_TIME_OFFSET ( 2, 0, .AHEAD. ) ;
#23 = EDGE_CURVE ( 'NONE', #228, #174, #64, .T. ) ;
#24 = DESIGN_CONTEXT ( 'detailed design', #170, 'design' ) ;
#25 = EDGE_LOOP ( 'NONE', ( #31, #141, #113, #195, #176 ) ) ;
#26 = ADVANCED_FACE ( 'NONE', ( #47 ), #196, .T. ) ;
#27 = CARTESIAN_POINT ( 'NONE',  ( -2.949029909160572100E-014, 12.85233455309653600, -0.2313582051018891200 ) ) ;
#28 = PERSON_AND_ORGANIZATION ( #128, #181 ) ;
#29 = EDGE_LOOP ( 'NONE', ( #81, #173, #167 ) ) ;
#30 = DIRECTION ( 'NONE',  ( 0.0000000000000000000, 0.0000000000000000000, 1.000000000000000000 ) ) ;
#31 = ORIENTED_EDGE ( 'NONE', *, *, #20, .F. ) ;
#32 = CARTESIAN_POINT ( 'NONE',  ( 8.513516606510274100, -12.85233455309657600, -0.3075247100037452600 ) ) ;
#33 = DIRECTION ( 'NONE',  ( 1.000000000000000000, 0.0000000000000000000, 0.0000000000000000000 ) ) ;
#34 = CARTESIAN_POINT ( 'NONE',  ( 12.69999999999999900, 2.442490654175340100E-015, 3.799999999999999400 ) ) ;
#35 = DIRECTION ( 'NONE',  ( 1.000000000000000000, 0.0000000000000000000, 0.0000000000000000000 ) ) ;
#36 = DATE_AND_TIME ( #42, #163 ) ;
#37 = DATE_TIME_ROLE ( 'classification_date' ) ;
#38 = LOCAL_TIME ( 9, 47, 1.000000000000000000, #189 ) ;
#39 = AXIS2_PLACEMENT_3D ( 'NONE', #137, #115, #21 ) ;
#40 = APPROVAL_ROLE ( '' ) ;
#41 = EDGE_CURVE ( 'NONE', #174, #53, #107, .T. ) ;
#42 = CALENDAR_DATE ( 2019, 17, 1 ) ;
#43 = EDGE_LOOP ( 'NONE', ( #226, #161 ) ) ;
#44 = ADVANCED_FACE ( 'NONE', ( #218 ), #190, .T. ) ;
#45 = AXIS2_PLACEMENT_3D ( 'NONE', #194, #16, #51 ) ;
#46 = CALENDAR_DATE ( 2019, 17, 1 ) ;
#47 = FACE_OUTER_BOUND ( 'NONE', #43, .T. ) ;
#48 = LOCAL_TIME ( 9, 47, 1.000000000000000000, #99 ) ;
#49 = ADVANCED_BREP_SHAPE_REPRESENTATION ( '112-1239E UVFS pl-cv 25.4 F-750', ( #210, #123 ), #91 ) ;
#50 = CARTESIAN_POINT ( 'NONE',  ( -12.69999999999999900, 3.997792089092478900E-015, -0.2259045545614270000 ) ) ;
#51 = DIRECTION ( 'NONE',  ( 1.000000000000000000, 0.0000000000000000000, 0.0000000000000000000 ) ) ;
#52 = PERSON_AND_ORGANIZATION ( #128, #181 ) ;
#53 = VERTEX_POINT ( 'NONE', #108 ) ;
#54 = CC_DESIGN_PERSON_AND_ORGANIZATION_ASSIGNMENT ( #116, #78, ( #193 ) ) ;
#55 = CARTESIAN_POINT ( 'NONE',  ( -8.520876493661360100, -4.285962712770952100, 0.0009203751266342214200 ) ) ;
#56 = CIRCLE ( 'NONE', #217, 357.1000000000000200 ) ;
#57 = CARTESIAN_POINT ( 'NONE',  ( 8.520876493661258900, -4.285962712770952100, 0.0009203751266034570700 ) ) ;
#58 = CARTESIAN_POINT ( 'NONE',  ( -8.513516606510375300, -12.85233455309657600, -0.3075247100037145100 ) ) ;
#59 = CARTESIAN_POINT ( 'NONE',  ( 12.77892790400179400, -4.285962712770949400, -0.1515199209413974300 ) ) ;
#60 = FACE_OUTER_BOUND ( 'NONE', #25, .T. ) ;
#61 = AXIS2_PLACEMENT_3D ( 'NONE', #15, #86, #69 ) ;
#62 = PERSON_AND_ORGANIZATION ( #128, #181 ) ;
#63 = ORIENTED_EDGE ( 'NONE', *, *, #132, .T. ) ;
#64 = CIRCLE ( 'NONE', #10, 12.69999999999999900 ) ;
#65 = EDGE_CURVE ( 'NONE', #53, #213, #139, .T. ) ;
#66 = CARTESIAN_POINT ( 'NONE',  ( -8.520876493661360100, 4.285962712770917400, 0.0009203751266334082600 ) ) ;
#67 = APPROVAL_PERSON_ORGANIZATION ( #83, #209, #95 ) ;
#68 = EDGE_LOOP ( 'NONE', ( #100, #206, #191, #63, #184 ) ) ;
#69 = DIRECTION ( 'NONE',  ( 1.000000000000000000, 0.0000000000000000000, 0.0000000000000000000 ) ) ;
#70 = AXIS2_PLACEMENT_3D ( 'NONE', #149, #182, #33 ) ;
#71 = CARTESIAN_POINT ( 'NONE',  ( 5.684341886080800200E-014, 0.0000000000000000000, -357.1000000000000200 ) ) ;
#72 = CARTESIAN_POINT ( 'NONE',  ( 8.513516606510274100, 12.85233455309654000, -0.3075247100037452600 ) ) ;
#73 = CALENDAR_DATE ( 2019, 17, 1 ) ;
#74 = CARTESIAN_POINT ( 'NONE',  ( -4.257099016543088900, -12.85233455309657600, -0.2313582051018901500 ) ) ;
#75 = CARTESIAN_POINT ( 'NONE',  ( -12.76789013489992400, -12.85233455309657200, -0.4598333361223727600 ) ) ;
#76 = DIRECTION ( 'NONE',  ( 1.000000000000000000, 0.0000000000000000000, 0.0000000000000000000 ) ) ;
#77 = DATE_AND_TIME ( #73, #48 ) ;
#78 = PERSON_AND_ORGANIZATION_ROLE ( 'design_supplier' ) ;
#79 = SECURITY_CLASSIFICATION ( '', '', #120 ) ;
#80 = SHAPE_DEFINITION_REPRESENTATION ( #183, #49 ) ;
#81 = ORIENTED_EDGE ( 'NONE', *, *, #65, .F. ) ;
#82 = CARTESIAN_POINT ( 'NONE',  ( -4.260779254663297000, 4.285962712770917400, 0.07715272554291099900 ) ) ;
#83 = PERSON_AND_ORGANIZATION ( #128, #181 ) ;
#84 = LINE ( 'NONE', #50, #153 ) ;
#85 = EDGE_CURVE ( 'NONE', #213, #228, #13, .T. ) ;
#86 = DIRECTION ( 'NONE',  ( 0.0000000000000000000, 0.0000000000000000000, 1.000000000000000000 ) ) ;
#87 = DIRECTION ( 'NONE',  ( -0.0000000000000000000, -0.0000000000000000000, -1.000000000000000000 ) ) ;
#88 = CC_DESIGN_DATE_AND_TIME_ASSIGNMENT ( #111, #37, ( #79 ) ) ;
#89 = CARTESIAN_POINT ( 'NONE',  ( 5.684341886080800200E-014, 12.85233455309653600, -0.2313582051019502700 ) ) ;
#90 = CARTESIAN_POINT ( 'NONE',  ( 5.684341886080800200E-014, -12.70000000000071000, -0.2259045545614669100 ) ) ;
#91 =( GEOMETRIC_REPRESENTATION_CONTEXT ( 3 ) GLOBAL_UNCERTAINTY_ASSIGNED_CONTEXT ( ( #185 ) ) GLOBAL_UNIT_ASSIGNED_CONTEXT ( ( #1, #178, #223 ) ) REPRESENTATION_CONTEXT ( 'NONE', 'WORKASPACE' ) );
#92 = FACE_OUTER_BOUND ( 'NONE', #29, .T. ) ;
#93 = CLOSED_SHELL ( 'NONE', ( #102, #44, #155, #105, #26 ) ) ;
#94 = DIRECTION ( 'NONE',  ( 0.0000000000000000000, 0.0000000000000000000, 1.000000000000000000 ) ) ;
#95 = APPROVAL_ROLE ( '' ) ;
#96 = CC_DESIGN_SECURITY_CLASSIFICATION ( #79, ( #193 ) ) ;
#97 = APPLICATION_CONTEXT ( 'configuration controlled 3d designs of mechanical parts and assemblies' ) ;
#98 = ORIENTED_EDGE ( 'NONE', *, *, #41, .F. ) ;
#99 = COORDINATED_UNIVERSAL_TIME_OFFSET ( 2, 0, .AHEAD. ) ;
#100 = ORIENTED_EDGE ( 'NONE', *, *, #41, .T. ) ;
#101 = AXIS2_PLACEMENT_3D ( 'NONE', #197, #215, #131 ) ;
#102 = ADVANCED_FACE ( 'NONE', ( #92 ), #112, .F. ) ;
#103 = LINE ( 'NONE', #117, #172 ) ;
#104 = PRODUCT ( '112-1239E UVFS pl-cv 25.4 F-750', '112-1239E UVFS pl-cv 25.4 F-750', '', ( #208 ) ) ;
#105 = ADVANCED_FACE ( 'NONE', ( #60 ), #124, .T. ) ;
#106 = CC_DESIGN_APPROVAL ( #144, ( #79 ) ) ;
#107 = CIRCLE ( 'NONE', #45, 12.69999999999999900 ) ;
#108 = CARTESIAN_POINT ( 'NONE',  ( 5.684341886080800200E-014, 12.70000000000071000, -0.2259045545614669100 ) ) ;
#109 = DIRECTION ( 'NONE',  ( 0.0000000000000000000, 0.0000000000000000000, 1.000000000000000000 ) ) ;
#110 = DIRECTION ( 'NONE',  ( 1.000000000000000000, 0.0000000000000000000, 0.0000000000000000000 ) ) ;
#111 = DATE_AND_TIME ( #156, #205 ) ;
#112 =( BOUNDED_SURFACE ( )  B_SPLINE_SURFACE ( 3, 3, ( 
 ( #220, #18, #145, #27 ),
 ( #175, #66, #82, #216 ),
 ( #235, #55, #179, #136 ),
 ( #75, #58, #74, #135 ) ),
 .UNSPECIFIED., .F., .F., .F. ) 
 B_SPLINE_SURFACE_WITH_KNOTS ( ( 4, 4 ),
 ( 4, 4 ),
 ( 0.0000000000000000000, 1.000000000000000000 ),
 ( 0.0000000000000000000, 1.000000000000000000 ),
 .UNSPECIFIED. ) 
 GEOMETRIC_REPRESENTATION_ITEM ( )  RATIONAL_B_SPLINE_SURFACE ( (
 ( 1.000000000000000000, 0.9998932878041871800, 0.9998932878041871800, 1.000000000000000000),
 ( 0.9995680795200186900, 0.9994614134153887400, 0.9994614134153887400, 0.9995680795200186900),
 ( 0.9995680795200186900, 0.9994614134153887400, 0.9994614134153887400, 0.9995680795200186900),
 ( 1.000000000000000000, 0.9998932878041871800, 0.9998932878041871800, 1.000000000000000000) ) ) 
 REPRESENTATION_ITEM ( '' )  SURFACE ( )  );
#113 = ORIENTED_EDGE ( 'NONE', *, *, #23, .T. ) ;
#114 = DIRECTION ( 'NONE',  ( 0.0000000000000000000, 0.0000000000000000000, 1.000000000000000000 ) ) ;
#115 = DIRECTION ( 'NONE',  ( -0.0000000000000000000, -0.0000000000000000000, -1.000000000000000000 ) ) ;
#116 = PERSON_AND_ORGANIZATION ( #128, #181 ) ;
#117 = CARTESIAN_POINT ( 'NONE',  ( 12.69999999999999900, 2.442490654175340100E-015, -0.2259045545614270000 ) ) ;
#118 = APPROVAL_STATUS ( 'not_yet_approved' ) ;
#119 = PERSON_AND_ORGANIZATION ( #128, #181 ) ;
#120 = SECURITY_CLASSIFICATION_LEVEL ( 'unclassified' ) ;
#121 = APPROVAL_STATUS ( 'not_yet_approved' ) ;
#122 = APPROVAL_DATE_TIME ( #36, #209 ) ;
#123 = AXIS2_PLACEMENT_3D ( 'NONE', #202, #207, #168 ) ;
#124 = CYLINDRICAL_SURFACE ( 'NONE', #70, 12.69999999999999900 ) ;
#125 = VERTEX_POINT ( 'NONE', #34 ) ;
#126 = CC_DESIGN_PERSON_AND_ORGANIZATION_ASSIGNMENT ( #62, #8, ( #79 ) ) ;
#127 = CC_DESIGN_APPROVAL ( #187, ( #138 ) ) ;
#128 = PERSON ( 'UNSPECIFIED', 'UNSPECIFIED', 'UNSPECIFIED', ('UNSPECIFIED'), ('UNSPECIFIED'), ('UNSPECIFIED') ) ;
#129 = CALENDAR_DATE ( 2019, 17, 1 ) ;
#130 = CARTESIAN_POINT ( 'NONE',  ( 4.996003610813200500E-016, 2.442490654175340100E-015, -0.2259045545614270000 ) ) ;
#131 = DIRECTION ( 'NONE',  ( 1.000000000000000000, 0.0000000000000000000, 0.0000000000000000000 ) ) ;
#132 = EDGE_CURVE ( 'NONE', #7, #125, #232, .T. ) ;
#133 = DIRECTION ( 'NONE',  ( 1.000000000000000000, 0.0000000000000000000, 0.0000000000000000000 ) ) ;
#134 = CARTESIAN_POINT ( 'NONE',  ( 5.684341886080800200E-014, -12.85233455309657200, -0.2313582051019502700 ) ) ;
#135 = CARTESIAN_POINT ( 'NONE',  ( -2.949029909160572100E-014, -12.85233455309657200, -0.2313582051018891200 ) ) ;
#136 = CARTESIAN_POINT ( 'NONE',  ( -2.949029909160572100E-014, -4.285962712770949400, 0.07715272554291281700 ) ) ;
#137 = CARTESIAN_POINT ( 'NONE',  ( 4.996003610813200500E-016, 2.442490654175340100E-015, 3.799999999999999400 ) ) ;
#138 = PRODUCT_DEFINITION ( 'UNKNOWN', '', #193, #24 ) ;
#139 = CIRCLE ( 'NONE', #61, 12.69999999999999900 ) ;
#140 = APPLICATION_PROTOCOL_DEFINITION ( 'international standard', 'config_control_design', 1994, #97 ) ;
#141 = ORIENTED_EDGE ( 'NONE', *, *, #85, .T. ) ;
#142 = PERSON_AND_ORGANIZATION ( #128, #181 ) ;
#143 = CC_DESIGN_PERSON_AND_ORGANIZATION_ASSIGNMENT ( #11, #186, ( #104 ) ) ;
#144 = APPROVAL ( #229, 'UNSPECIFIED' ) ;
#145 = CARTESIAN_POINT ( 'NONE',  ( -4.257099016543088900, 12.85233455309654000, -0.2313582051018901500 ) ) ;
#146 = EDGE_LOOP ( 'NONE', ( #4, #98, #219 ) ) ;
#147 = EDGE_CURVE ( 'NONE', #53, #228, #56, .T. ) ;
#148 = CARTESIAN_POINT ( 'NONE',  ( 4.996003610813200500E-016, 2.442490654175340100E-015, -0.2259045545614270000 ) ) ;
#149 = CARTESIAN_POINT ( 'NONE',  ( 4.996003610813200500E-016, 2.442490654175340100E-015, -0.2259045545614270000 ) ) ;
#150 = CARTESIAN_POINT ( 'NONE',  ( 4.260779254663260600, 4.285962712770917400, 0.07715272554285081100 ) ) ;
#151 = APPROVAL_PERSON_ORGANIZATION ( #28, #187, #188 ) ;
#152 = CARTESIAN_POINT ( 'NONE',  ( 4.260779254663260600, -4.285962712770952100, 0.07715272554285163000 ) ) ;
#153 = VECTOR ( 'NONE', #109, 1000.000000000000000 ) ;
#154 = EDGE_CURVE ( 'NONE', #174, #125, #103, .T. ) ;
#155 = ADVANCED_FACE ( 'NONE', ( #230 ), #171, .F. ) ;
#156 = CALENDAR_DATE ( 2019, 17, 1 ) ;
#157 = CC_DESIGN_PERSON_AND_ORGANIZATION_ASSIGNMENT ( #142, #169, ( #138 ) ) ;
#158 = DATE_AND_TIME ( #129, #3 ) ;
#159 = DIRECTION ( 'NONE',  ( 0.0000000000000000000, 0.0000000000000000000, 1.000000000000000000 ) ) ;
#160 = DIRECTION ( 'NONE',  ( 1.000000000000000000, 0.0000000000000000000, -0.0000000000000000000 ) ) ;
#161 = ORIENTED_EDGE ( 'NONE', *, *, #132, .F. ) ;
#162 = CARTESIAN_POINT ( 'NONE',  ( -12.69999999999999900, 3.997792089092478900E-015, 3.799999999999999400 ) ) ;
#163 = LOCAL_TIME ( 9, 47, 1.000000000000000000, #22 ) ;
#164 = CARTESIAN_POINT ( 'NONE',  ( 8.520876493661258900, 4.285962712770917400, 0.0009203751266026439200 ) ) ;
#165 = CARTESIAN_POINT ( 'NONE',  ( 4.257099016543052400, 12.85233455309654000, -0.2313582051019502700 ) ) ;
#166 = CARTESIAN_POINT ( 'NONE',  ( 12.76789013489975800, 12.85233455309653600, -0.4598333361223979100 ) ) ;
#167 = ORIENTED_EDGE ( 'NONE', *, *, #85, .F. ) ;
#168 = DIRECTION ( 'NONE',  ( 1.000000000000000000, 0.0000000000000000000, 0.0000000000000000000 ) ) ;
#169 = PERSON_AND_ORGANIZATION_ROLE ( 'creator' ) ;
#170 = APPLICATION_CONTEXT ( 'configuration controlled 3d designs of mechanical parts and assemblies' ) ;
#171 =( BOUNDED_SURFACE ( )  B_SPLINE_SURFACE ( 3, 3, ( 
 ( #89, #165, #72, #166 ),
 ( #224, #150, #164, #201 ),
 ( #221, #152, #57, #59 ),
 ( #134, #19, #32, #2 ) ),
 .UNSPECIFIED., .F., .F., .T. ) 
 B_SPLINE_SURFACE_WITH_KNOTS ( ( 4, 4 ),
 ( 4, 4 ),
 ( 0.0000000000000000000, 1.000000000000000000 ),
 ( 0.0000000000000000000, 1.000000000000000000 ),
 .UNSPECIFIED. ) 
 GEOMETRIC_REPRESENTATION_ITEM ( )  RATIONAL_B_SPLINE_SURFACE ( (
 ( 1.000000000000000000, 0.9998932878041871800, 0.9998932878041871800, 1.000000000000000000),
 ( 0.9995680795200186900, 0.9994614134153887400, 0.9994614134153887400, 0.9995680795200186900),
 ( 0.9995680795200186900, 0.9994614134153887400, 0.9994614134153887400, 0.9995680795200186900),
 ( 1.000000000000000000, 0.9998932878041871800, 0.9998932878041871800, 1.000000000000000000) ) ) 
 REPRESENTATION_ITEM ( '' )  SURFACE ( )  );
#172 = VECTOR ( 'NONE', #94, 1000.000000000000000 ) ;
#173 = ORIENTED_EDGE ( 'NONE', *, *, #147, .T. ) ;
#174 = VERTEX_POINT ( 'NONE', #200 ) ;
#175 = CARTESIAN_POINT ( 'NONE',  ( -12.77892790400195700, 4.285962712770914800, -0.1515199209413730700 ) ) ;
#176 = ORIENTED_EDGE ( 'NONE', *, *, #214, .T. ) ;
#177 = CC_DESIGN_DATE_AND_TIME_ASSIGNMENT ( #77, #204, ( #138 ) ) ;
#178 =( NAMED_UNIT ( * ) PLANE_ANGLE_UNIT ( ) SI_UNIT ( $, .RADIAN. ) );
#179 = CARTESIAN_POINT ( 'NONE',  ( -4.260779254663297000, -4.285962712770952100, 0.07715272554291183200 ) ) ;
#180 = CARTESIAN_POINT ( 'NONE',  ( -12.69999999999999900, 3.997792089092478900E-015, -0.2259045545614270000 ) ) ;
#181 = ORGANIZATION ( 'UNSPECIFIED', 'UNSPECIFIED', '' ) ;
#182 = DIRECTION ( 'NONE',  ( 0.0000000000000000000, 0.0000000000000000000, 1.000000000000000000 ) ) ;
#183 = PRODUCT_DEFINITION_SHAPE ( 'NONE', 'NONE',  #138 ) ;
#184 = ORIENTED_EDGE ( 'NONE', *, *, #154, .F. ) ;
#185 = UNCERTAINTY_MEASURE_WITH_UNIT (LENGTH_MEASURE( 1.000000000000000100E-005 ), #1, 'distance_accuracy_value', 'NONE');
#186 = PERSON_AND_ORGANIZATION_ROLE ( 'design_owner' ) ;
#187 = APPROVAL ( #121, 'UNSPECIFIED' ) ;
#188 = APPROVAL_ROLE ( '' ) ;
#189 = COORDINATED_UNIVERSAL_TIME_OFFSET ( 2, 0, .AHEAD. ) ;
#190 = CYLINDRICAL_SURFACE ( 'NONE', #101, 12.69999999999999900 ) ;
#191 = ORIENTED_EDGE ( 'NONE', *, *, #20, .T. ) ;
#192 = APPROVAL_PERSON_ORGANIZATION ( #52, #144, #40 ) ;
#193 = PRODUCT_DEFINITION_FORMATION_WITH_SPECIFIED_SOURCE ( 'ANY', '', #104, .NOT_KNOWN. ) ;
#194 = CARTESIAN_POINT ( 'NONE',  ( 4.996003610813200500E-016, 2.442490654175340100E-015, -0.2259045545614270000 ) ) ;
#195 = ORIENTED_EDGE ( 'NONE', *, *, #154, .T. ) ;
#196 = PLANE ( 'NONE',  #231 ) ;
#197 = CARTESIAN_POINT ( 'NONE',  ( 4.996003610813200500E-016, 2.442490654175340100E-015, -0.2259045545614270000 ) ) ;
#198 = CIRCLE ( 'NONE', #39, 12.69999999999999900 ) ;
#199 = CARTESIAN_POINT ( 'NONE',  ( 4.996003610813200500E-016, 2.442490654175340100E-015, 3.799999999999999400 ) ) ;
#200 = CARTESIAN_POINT ( 'NONE',  ( 12.69999999999999900, 2.442490654175340100E-015, -0.2259045545614270000 ) ) ;
#201 = CARTESIAN_POINT ( 'NONE',  ( 12.77892790400179400, 4.285962712770914800, -0.1515199209413982700 ) ) ;
#202 = CARTESIAN_POINT ( 'NONE',  ( 0.0000000000000000000, 0.0000000000000000000, 0.0000000000000000000 ) ) ;
#203 = AXIS2_PLACEMENT_3D ( 'NONE', #148, #114, #133 ) ;
#204 = DATE_TIME_ROLE ( 'creation_date' ) ;
#205 = LOCAL_TIME ( 9, 47, 1.000000000000000000, #17 ) ;
#206 = ORIENTED_EDGE ( 'NONE', *, *, #65, .T. ) ;
#207 = DIRECTION ( 'NONE',  ( 0.0000000000000000000, 0.0000000000000000000, 1.000000000000000000 ) ) ;
#208 = MECHANICAL_CONTEXT ( 'NONE', #97, 'mechanical' ) ;
#209 = APPROVAL ( #118, 'UNSPECIFIED' ) ;
#210 = MANIFOLD_SOLID_BREP ( 'Imported1', #93 ) ;
#211 = APPLICATION_PROTOCOL_DEFINITION ( 'international standard', 'config_control_design', 1994, #170 ) ;
#212 = COORDINATED_UNIVERSAL_TIME_OFFSET ( 2, 0, .AHEAD. ) ;
#213 = VERTEX_POINT ( 'NONE', #180 ) ;
#214 = EDGE_CURVE ( 'NONE', #125, #7, #198, .T. ) ;
#215 = DIRECTION ( 'NONE',  ( 0.0000000000000000000, 0.0000000000000000000, 1.000000000000000000 ) ) ;
#216 = CARTESIAN_POINT ( 'NONE',  ( -2.949029909160572100E-014, 4.285962712770914800, 0.07715272554291201200 ) ) ;
#217 = AXIS2_PLACEMENT_3D ( 'NONE', #71, #35, #5 ) ;
#218 = FACE_OUTER_BOUND ( 'NONE', #68, .T. ) ;
#219 = ORIENTED_EDGE ( 'NONE', *, *, #23, .F. ) ;
#220 = CARTESIAN_POINT ( 'NONE',  ( -12.76789013489992400, 12.85233455309653600, -0.4598333361223727600 ) ) ;
#221 = CARTESIAN_POINT ( 'NONE',  ( 5.684341886080800900E-014, -4.285962712770949400, 0.07715272554285161600 ) ) ;
#222 = CC_DESIGN_APPROVAL ( #209, ( #193 ) ) ;
#223 =( NAMED_UNIT ( * ) SI_UNIT ( $, .STERADIAN. ) SOLID_ANGLE_UNIT ( ) );
#224 = CARTESIAN_POINT ( 'NONE',  ( 5.684341886080800900E-014, 4.285962712770914800, 0.07715272554285079700 ) ) ;
#225 = AXIS2_PLACEMENT_3D ( 'NONE', #199, #87, #76 ) ;
#226 = ORIENTED_EDGE ( 'NONE', *, *, #214, .F. ) ;
#227 = PERSON_AND_ORGANIZATION_ROLE ( 'creator' ) ;
#228 = VERTEX_POINT ( 'NONE', #90 ) ;
#229 = APPROVAL_STATUS ( 'not_yet_approved' ) ;
#230 = FACE_OUTER_BOUND ( 'NONE', #146, .T. ) ;
#231 = AXIS2_PLACEMENT_3D ( 'NONE', #233, #30, #160 ) ;
#232 = CIRCLE ( 'NONE', #225, 12.69999999999999900 ) ;
#233 = CARTESIAN_POINT ( 'NONE',  ( 0.0000000000000000000, 26.11199999999999800, 3.799999999999999800 ) ) ;
#234 = APPROVAL_DATE_TIME ( #6, #144 ) ;
#235 = CARTESIAN_POINT ( 'NONE',  ( -12.77892790400195700, -4.285962712770949400, -0.1515199209413722600 ) ) ;
ENDSEC;
END-ISO-10303-21;
