ISO-10303-21;
HEADER;
FILE_DESCRIPTION (( 'STEP AP203' ),
    '1' );
FILE_NAME ('112-1233E UVFS pl-cv 25.4 F-500.STEP',
    '2019-01-17T07:33:32',
    ( '' ),
    ( '' ),
    'SwSTEP 2.0',
    'SolidWorks 2017',
    '' );
FILE_SCHEMA (( 'CONFIG_CONTROL_DESIGN' ));
ENDSEC;

DATA;
#1 = PLANE ( 'NONE',  #183 ) ;
#2 = CC_DESIGN_PERSON_AND_ORGANIZATION_ASSIGNMENT ( #150, #39, ( #112 ) ) ;
#3 = CARTESIAN_POINT ( 'NONE',  ( 12.78234696557838700, 4.288255581136367800, -0.2274637098746160900 ) ) ;
#4 = VERTEX_POINT ( 'NONE', #40 ) ;
#5 = ORIENTED_EDGE ( 'NONE', *, *, #71, .F. ) ;
#6 = CARTESIAN_POINT ( 'NONE',  ( 12.69999999999999900, 2.442490654175340100E-015, -0.3390860911285650300 ) ) ;
#7 = DIRECTION ( 'NONE',  ( 1.000000000000000000, 0.0000000000000000000, 0.0000000000000000000 ) ) ;
#8 = CARTESIAN_POINT ( 'NONE',  ( 8.508568815511274900, 12.85225256879559400, -0.4615203309462058100 ) ) ;
#9 = CARTESIAN_POINT ( 'NONE',  ( -12.69999999999999900, 3.997792089092478900E-015, -0.3390860911285650300 ) ) ;
#10 = CC_DESIGN_PERSON_AND_ORGANIZATION_ASSIGNMENT ( #174, #155, ( #138 ) ) ;
#11 = AXIS2_PLACEMENT_3D ( 'NONE', #176, #73, #95 ) ;
#12 = FACE_OUTER_BOUND ( 'NONE', #210, .T. ) ;
#13 = EDGE_LOOP ( 'NONE', ( #5, #230, #118, #78, #160 ) ) ;
#14 = CARTESIAN_POINT ( 'NONE',  ( -12.78234696557846900, -4.288255581136413100, -0.2274637098746131200 ) ) ;
#15 =( LENGTH_UNIT ( ) NAMED_UNIT ( * ) SI_UNIT ( .MILLI., .METRE. ) );
#16 = CALENDAR_DATE ( 2019, 17, 1 ) ;
#17 = ADVANCED_FACE ( 'NONE', ( #206 ), #23, .T. ) ;
#18 = APPROVAL_STATUS ( 'not_yet_approved' ) ;
#19 = CALENDAR_DATE ( 2019, 17, 1 ) ;
#20 = DATE_TIME_ROLE ( 'classification_date' ) ;
#21 = DIRECTION ( 'NONE',  ( 0.0000000000000000000, 0.0000000000000000000, 1.000000000000000000 ) ) ;
#22 = DIRECTION ( 'NONE',  ( 1.000000000000000000, 0.0000000000000000000, 0.0000000000000000000 ) ) ;
#23 = CYLINDRICAL_SURFACE ( 'NONE', #227, 12.69999999999999900 ) ;
#24 = CARTESIAN_POINT ( 'NONE',  ( 8.508568815511282000, -12.85225256879563600, -0.4615203309462058100 ) ) ;
#25 = PRODUCT_DEFINITION_SHAPE ( 'NONE', 'NONE',  #121 ) ;
#26 = PERSON_AND_ORGANIZATION ( #202, #50 ) ;
#27 = DIRECTION ( 'NONE',  ( 0.0000000000000000000, 0.0000000000000000000, 1.000000000000000000 ) ) ;
#28 = ADVANCED_BREP_SHAPE_REPRESENTATION ( '112-1233E UVFS pl-cv 25.4 F-500', ( #131, #204 ), #77 ) ;
#29 = CARTESIAN_POINT ( 'NONE',  ( 4.263343751957831000, 4.288255581136365200, 0.1158697100792374400 ) ) ;
#30 = CARTESIAN_POINT ( 'NONE',  ( -12.78234696557847100, 4.288255581136361600, -0.2274637098746116500 ) ) ;
#31 = AXIS2_PLACEMENT_3D ( 'NONE', #159, #158, #22 ) ;
#32 = DATE_AND_TIME ( #229, #67 ) ;
#33 = COORDINATED_UNIVERSAL_TIME_OFFSET ( 2, 0, .AHEAD. ) ;
#34 = CC_DESIGN_DATE_AND_TIME_ASSIGNMENT ( #171, #20, ( #138 ) ) ;
#35 = APPLICATION_CONTEXT ( 'configuration controlled 3d designs of mechanical parts and assemblies' ) ;
#36 = APPROVAL_PERSON_ORGANIZATION ( #207, #178, #38 ) ;
#37 = VERTEX_POINT ( 'NONE', #213 ) ;
#38 = APPROVAL_ROLE ( '' ) ;
#39 = PERSON_AND_ORGANIZATION_ROLE ( 'design_owner' ) ;
#40 = CARTESIAN_POINT ( 'NONE',  ( -4.524216996194805000E-014, -12.69999999999977500, -0.3390860911285651900 ) ) ;
#41 = CARTESIAN_POINT ( 'NONE',  ( 0.0000000000000000000, 26.11199999999999800, 3.700000000000000200 ) ) ;
#42 = AXIS2_PLACEMENT_3D ( 'NONE', #75, #27, #7 ) ;
#43 = VERTEX_POINT ( 'NONE', #214 ) ;
#44 = CARTESIAN_POINT ( 'NONE',  ( 4.996003610813200500E-016, 2.442490654175340100E-015, 3.700000000000000600 ) ) ;
#45 = CIRCLE ( 'NONE', #11, 238.0000000000000000 ) ;
#46 = DIRECTION ( 'NONE',  ( -0.0000000000000000000, -0.0000000000000000000, -1.000000000000000000 ) ) ;
#47 = DIRECTION ( 'NONE',  ( 0.0000000000000000000, 0.0000000000000000000, 1.000000000000000000 ) ) ;
#48 = PRODUCT_DEFINITION_FORMATION_WITH_SPECIFIED_SOURCE ( 'ANY', '', #112, .NOT_KNOWN. ) ;
#49 = ORIENTED_EDGE ( 'NONE', *, *, #149, .T. ) ;
#50 = ORGANIZATION ( 'UNSPECIFIED', 'UNSPECIFIED', '' ) ;
#51 = CIRCLE ( 'NONE', #104, 12.69999999999999900 ) ;
#52 = EDGE_CURVE ( 'NONE', #223, #43, #69, .T. ) ;
#53 = UNCERTAINTY_MEASURE_WITH_UNIT (LENGTH_MEASURE( 1.000000000000000100E-005 ), #15, 'distance_accuracy_value', 'NONE');
#54 = DATE_TIME_ROLE ( 'creation_date' ) ;
#55 = CIRCLE ( 'NONE', #175, 12.69999999999999900 ) ;
#56 = ADVANCED_FACE ( 'NONE', ( #87 ), #1, .T. ) ;
#57 = CARTESIAN_POINT ( 'NONE',  ( -12.69999999999999900, 3.997792089092478900E-015, -0.3390860911285650300 ) ) ;
#58 = CARTESIAN_POINT ( 'NONE',  ( 12.78234696557838900, -4.288255581136407800, -0.2274637098746174800 ) ) ;
#59 = ORIENTED_EDGE ( 'NONE', *, *, #94, .T. ) ;
#60 = DIRECTION ( 'NONE',  ( 1.000000000000000000, 0.0000000000000000000, 0.0000000000000000000 ) ) ;
#61 = FACE_OUTER_BOUND ( 'NONE', #13, .T. ) ;
#62 = AXIS2_PLACEMENT_3D ( 'NONE', #177, #79, #197 ) ;
#63 = PERSON_AND_ORGANIZATION ( #202, #50 ) ;
#64 = ORIENTED_EDGE ( 'NONE', *, *, #71, .T. ) ;
#65 = CC_DESIGN_APPROVAL ( #182, ( #138 ) ) ;
#66 = CARTESIAN_POINT ( 'NONE',  ( -1.127570259384924600E-013, 12.85225256879559200, -0.3472709941922937900 ) ) ;
#67 = LOCAL_TIME ( 9, 33, 32.00000000000000000, #85 ) ;
#68 = CARTESIAN_POINT ( 'NONE',  ( -1.058181320345852300E-013, -12.85225256879563800, -0.3472709941922937900 ) ) ;
#69 = CIRCLE ( 'NONE', #31, 12.69999999999999900 ) ;
#70 = DIRECTION ( 'NONE',  ( 1.000000000000000000, 0.0000000000000000000, 0.0000000000000000000 ) ) ;
#71 = EDGE_CURVE ( 'NONE', #233, #220, #127, .T. ) ;
#72 = APPROVAL_DATE_TIME ( #117, #166 ) ;
#73 = DIRECTION ( 'NONE',  ( 1.000000000000000000, 2.441897141834629800E-016, -3.576540790375520200E-017 ) ) ;
#74 = DIRECTION ( 'NONE',  ( 1.000000000000000000, 0.0000000000000000000, 0.0000000000000000000 ) ) ;
#75 = CARTESIAN_POINT ( 'NONE',  ( 4.996003610813200500E-016, 2.442490654175340100E-015, -0.3390860911285650300 ) ) ;
#76 = CALENDAR_DATE ( 2019, 17, 1 ) ;
#77 =( GEOMETRIC_REPRESENTATION_CONTEXT ( 3 ) GLOBAL_UNCERTAINTY_ASSIGNED_CONTEXT ( ( #53 ) ) GLOBAL_UNIT_ASSIGNED_CONTEXT ( ( #15, #119, #151 ) ) REPRESENTATION_CONTEXT ( 'NONE', 'WORKASPACE' ) );
#78 = ORIENTED_EDGE ( 'NONE', *, *, #162, .T. ) ;
#79 = DIRECTION ( 'NONE',  ( 0.0000000000000000000, 0.0000000000000000000, 1.000000000000000000 ) ) ;
#80 = CARTESIAN_POINT ( 'NONE',  ( -4.727995974756625500E-014, -4.288255581136410500, 0.1158697100792361700 ) ) ;
#81 = LOCAL_TIME ( 9, 33, 32.00000000000000000, #33 ) ;
#82 = EDGE_LOOP ( 'NONE', ( #88, #224 ) ) ;
#83 = COORDINATED_UNIVERSAL_TIME_OFFSET ( 2, 0, .AHEAD. ) ;
#84 = ORIENTED_EDGE ( 'NONE', *, *, #231, .T. ) ;
#85 = COORDINATED_UNIVERSAL_TIME_OFFSET ( 2, 0, .AHEAD. ) ;
#86 = CARTESIAN_POINT ( 'NONE',  ( -12.75748501419703000, -12.85225256879564200, -0.6899366229480563600 ) ) ;
#87 = FACE_OUTER_BOUND ( 'NONE', #82, .T. ) ;
#88 = ORIENTED_EDGE ( 'NONE', *, *, #100, .F. ) ;
#89 = MECHANICAL_CONTEXT ( 'NONE', #184, 'mechanical' ) ;
#90 = AXIS2_PLACEMENT_3D ( 'NONE', #146, #195, #221 ) ;
#91 = APPLICATION_PROTOCOL_DEFINITION ( 'international standard', 'config_control_design', 1994, #184 ) ;
#92 = DIRECTION ( 'NONE',  ( 0.0000000000000000000, 0.0000000000000000000, 1.000000000000000000 ) ) ;
#93 = CARTESIAN_POINT ( 'NONE',  ( 4.255051452791724000, 12.85225256879559400, -0.3472709941922948500 ) ) ;
#94 = EDGE_CURVE ( 'NONE', #220, #37, #55, .T. ) ;
#95 = DIRECTION ( 'NONE',  ( -2.441897141834630300E-016, 1.000000000000000000, -4.664802624475447800E-016 ) ) ;
#96 = CARTESIAN_POINT ( 'NONE',  ( -8.508568815511388600, 12.85225256879559000, -0.4615203309462033700 ) ) ;
#97 = CARTESIAN_POINT ( 'NONE',  ( 4.263343751957832800, -4.288255581136410500, 0.1158697100792360500 ) ) ;
#98 = CARTESIAN_POINT ( 'NONE',  ( 4.996003610813200500E-016, 2.442490654175340100E-015, -0.3390860911285650300 ) ) ;
#99 = APPROVAL_DATE_TIME ( #219, #178 ) ;
#100 = EDGE_CURVE ( 'NONE', #37, #220, #51, .T. ) ;
#101 = CC_DESIGN_PERSON_AND_ORGANIZATION_ASSIGNMENT ( #235, #125, ( #48 ) ) ;
#102 = AXIS2_PLACEMENT_3D ( 'NONE', #98, #47, #74 ) ;
#103 = SHAPE_DEFINITION_REPRESENTATION ( #25, #28 ) ;
#104 = AXIS2_PLACEMENT_3D ( 'NONE', #44, #161, #114 ) ;
#105 = CARTESIAN_POINT ( 'NONE',  ( -1.075528555105620300E-013, -4.288255581136410500, 0.1158697100792371500 ) ) ;
#106 = ORIENTED_EDGE ( 'NONE', *, *, #231, .F. ) ;
#107 = APPROVAL_PERSON_ORGANIZATION ( #180, #182, #122 ) ;
#108 = CIRCLE ( 'NONE', #102, 12.69999999999999900 ) ;
#109 = DIRECTION ( 'NONE',  ( 1.000000000000000000, 0.0000000000000000000, 0.0000000000000000000 ) ) ;
#110 = ORIENTED_EDGE ( 'NONE', *, *, #149, .F. ) ;
#111 = CARTESIAN_POINT ( 'NONE',  ( 8.525150424188964800, 4.288255581136366100, 0.001397722743916676200 ) ) ;
#112 = PRODUCT ( '112-1233E UVFS pl-cv 25.4 F-500', '112-1233E UVFS pl-cv 25.4 F-500', '', ( #89 ) ) ;
#113 = PERSON_AND_ORGANIZATION ( #202, #50 ) ;
#114 = DIRECTION ( 'NONE',  ( 1.000000000000000000, 0.0000000000000000000, 0.0000000000000000000 ) ) ;
#115 = EDGE_LOOP ( 'NONE', ( #139, #84, #64, #59, #172 ) ) ;
#116 = CARTESIAN_POINT ( 'NONE',  ( -4.263343751957963300, -4.288255581136413100, 0.1158697100792362600 ) ) ;
#117 = DATE_AND_TIME ( #124, #164 ) ;
#118 = ORIENTED_EDGE ( 'NONE', *, *, #130, .T. ) ;
#119 =( NAMED_UNIT ( * ) PLANE_ANGLE_UNIT ( ) SI_UNIT ( $, .RADIAN. ) );
#120 = CC_DESIGN_PERSON_AND_ORGANIZATION_ASSIGNMENT ( #63, #186, ( #48 ) ) ;
#121 = PRODUCT_DEFINITION ( 'UNKNOWN', '', #48, #133 ) ;
#122 = APPROVAL_ROLE ( '' ) ;
#123 = APPROVAL_STATUS ( 'not_yet_approved' ) ;
#124 = CALENDAR_DATE ( 2019, 17, 1 ) ;
#125 = PERSON_AND_ORGANIZATION_ROLE ( 'design_supplier' ) ;
#126 = COORDINATED_UNIVERSAL_TIME_OFFSET ( 2, 0, .AHEAD. ) ;
#127 = LINE ( 'NONE', #57, #153 ) ;
#128 = DIRECTION ( 'NONE',  ( 1.000000000000000000, 0.0000000000000000000, -0.0000000000000000000 ) ) ;
#129 = CARTESIAN_POINT ( 'NONE',  ( 8.525150424188968400, -4.288255581136409600, 0.001397722743915293800 ) ) ;
#130 = EDGE_CURVE ( 'NONE', #4, #223, #147, .T. ) ;
#131 = MANIFOLD_SOLID_BREP ( 'Imported1', #136 ) ;
#132 = DIRECTION ( 'NONE',  ( 0.0000000000000000000, 0.0000000000000000000, 1.000000000000000000 ) ) ;
#133 = DESIGN_CONTEXT ( 'detailed design', #35, 'design' ) ;
#134 = CARTESIAN_POINT ( 'NONE',  ( 4.996003610813200500E-016, 2.442490654175340100E-015, 3.700000000000000600 ) ) ;
#135 = CARTESIAN_POINT ( 'NONE',  ( -4.255051452791863500, 12.85225256879559000, -0.3472709941922947400 ) ) ;
#136 = CLOSED_SHELL ( 'NONE', ( #234, #17, #154, #225, #56 ) ) ;
#137 = VECTOR ( 'NONE', #132, 1000.000000000000000 ) ;
#138 = SECURITY_CLASSIFICATION ( '', '', #232 ) ;
#139 = ORIENTED_EDGE ( 'NONE', *, *, #52, .T. ) ;
#140 = APPROVAL_STATUS ( 'not_yet_approved' ) ;
#141 = CC_DESIGN_APPROVAL ( #166, ( #121 ) ) ;
#142 = CARTESIAN_POINT ( 'NONE',  ( 4.255051452791730200, -12.85225256879563600, -0.3472709941922948500 ) ) ;
#143 = CARTESIAN_POINT ( 'NONE',  ( -4.520528418708682100E-014, -12.85225256879563800, -0.3472709941922946800 ) ) ;
#144 = CARTESIAN_POINT ( 'NONE',  ( 12.75748501419695600, -12.85225256879563500, -0.6899366229480606800 ) ) ;
#145 = CIRCLE ( 'NONE', #62, 12.69999999999999900 ) ;
#146 = CARTESIAN_POINT ( 'NONE',  ( 4.996003610813200500E-016, 2.442490654175340100E-015, -0.3390860911285650300 ) ) ;
#147 = CIRCLE ( 'NONE', #90, 12.69999999999999900 ) ;
#148 = CARTESIAN_POINT ( 'NONE',  ( -8.525150424189073200, 4.288255581136361600, 0.001397722743919197200 ) ) ;
#149 = EDGE_CURVE ( 'NONE', #43, #4, #45, .T. ) ;
#150 = PERSON_AND_ORGANIZATION ( #202, #50 ) ;
#151 =( NAMED_UNIT ( * ) SI_UNIT ( $, .STERADIAN. ) SOLID_ANGLE_UNIT ( ) );
#152 =( BOUNDED_SURFACE ( )  B_SPLINE_SURFACE ( 3, 3, ( 
 ( #222, #96, #135, #66 ),
 ( #30, #148, #203, #167 ),
 ( #14, #226, #116, #105 ),
 ( #86, #170, #169, #68 ) ),
 .UNSPECIFIED., .F., .F., .T. ) 
 B_SPLINE_SURFACE_WITH_KNOTS ( ( 4, 4 ),
 ( 4, 4 ),
 ( 0.0000000000000000000, 1.000000000000000000 ),
 ( 0.0000000000000000000, 1.000000000000000000 ),
 .UNSPECIFIED. ) 
 GEOMETRIC_REPRESENTATION_ITEM ( )  RATIONAL_B_SPLINE_SURFACE ( (
 ( 1.000000000000000000, 0.9997596441015668100, 0.9997596441015668100, 1.000000000000000000),
 ( 0.9990272521171084100, 0.9987871300243665900, 0.9987871300243665900, 0.9990272521171084100),
 ( 0.9990272521171084100, 0.9987871300243665900, 0.9987871300243665900, 0.9990272521171084100),
 ( 1.000000000000000000, 0.9997596441015668100, 0.9997596441015668100, 1.000000000000000000) ) ) 
 REPRESENTATION_ITEM ( '' )  SURFACE ( )  );
#153 = VECTOR ( 'NONE', #215, 1000.000000000000000 ) ;
#154 = ADVANCED_FACE ( 'NONE', ( #199 ), #179, .F. ) ;
#155 = PERSON_AND_ORGANIZATION_ROLE ( 'classification_officer' ) ;
#156 = LOCAL_TIME ( 9, 33, 32.00000000000000000, #126 ) ;
#157 = PERSON_AND_ORGANIZATION_ROLE ( 'creator' ) ;
#158 = DIRECTION ( 'NONE',  ( 0.0000000000000000000, 0.0000000000000000000, 1.000000000000000000 ) ) ;
#159 = CARTESIAN_POINT ( 'NONE',  ( 4.996003610813200500E-016, 2.442490654175340100E-015, -0.3390860911285650300 ) ) ;
#160 = ORIENTED_EDGE ( 'NONE', *, *, #100, .T. ) ;
#161 = DIRECTION ( 'NONE',  ( -0.0000000000000000000, -0.0000000000000000000, -1.000000000000000000 ) ) ;
#162 = EDGE_CURVE ( 'NONE', #223, #37, #193, .T. ) ;
#163 = CARTESIAN_POINT ( 'NONE',  ( 12.69999999999999900, 2.442490654175340100E-015, -0.3390860911285650300 ) ) ;
#164 = LOCAL_TIME ( 9, 33, 32.00000000000000000, #83 ) ;
#165 = ORIENTED_EDGE ( 'NONE', *, *, #130, .F. ) ;
#166 = APPROVAL ( #123, 'UNSPECIFIED' ) ;
#167 = CARTESIAN_POINT ( 'NONE',  ( -1.092875789865388300E-013, 4.288255581136364300, 0.1158697100792384600 ) ) ;
#168 = LOCAL_TIME ( 9, 33, 32.00000000000000000, #205 ) ;
#169 = CARTESIAN_POINT ( 'NONE',  ( -4.255051452791856400, -12.85225256879564000, -0.3472709941922947400 ) ) ;
#170 = CARTESIAN_POINT ( 'NONE',  ( -8.508568815511381400, -12.85225256879564000, -0.4615203309462033700 ) ) ;
#171 = DATE_AND_TIME ( #16, #168 ) ;
#172 = ORIENTED_EDGE ( 'NONE', *, *, #162, .F. ) ;
#173 = EDGE_CURVE ( 'NONE', #233, #4, #108, .T. ) ;
#174 = PERSON_AND_ORGANIZATION ( #202, #50 ) ;
#175 = AXIS2_PLACEMENT_3D ( 'NONE', #134, #46, #60 ) ;
#176 = CARTESIAN_POINT ( 'NONE',  ( -5.684341886080800200E-014, -4.263256414560599900E-014, -238.0000000000000300 ) ) ;
#177 = CARTESIAN_POINT ( 'NONE',  ( 4.996003610813200500E-016, 2.442490654175340100E-015, -0.3390860911285650300 ) ) ;
#178 = APPROVAL ( #18, 'UNSPECIFIED' ) ;
#179 =( BOUNDED_SURFACE ( )  B_SPLINE_SURFACE ( 3, 3, ( 
 ( #194, #93, #8, #217 ),
 ( #218, #29, #111, #3 ),
 ( #80, #97, #129, #58 ),
 ( #143, #142, #24, #144 ) ),
 .UNSPECIFIED., .F., .F., .F. ) 
 B_SPLINE_SURFACE_WITH_KNOTS ( ( 4, 4 ),
 ( 4, 4 ),
 ( 0.0000000000000000000, 1.000000000000000000 ),
 ( 0.0000000000000000000, 1.000000000000000000 ),
 .UNSPECIFIED. ) 
 GEOMETRIC_REPRESENTATION_ITEM ( )  RATIONAL_B_SPLINE_SURFACE ( (
 ( 1.000000000000000000, 0.9997596441015668100, 0.9997596441015668100, 1.000000000000000000),
 ( 0.9990272521171084100, 0.9987871300243665900, 0.9987871300243665900, 0.9990272521171084100),
 ( 0.9990272521171084100, 0.9987871300243665900, 0.9987871300243665900, 0.9990272521171084100),
 ( 1.000000000000000000, 0.9997596441015668100, 0.9997596441015668100, 1.000000000000000000) ) ) 
 REPRESENTATION_ITEM ( '' )  SURFACE ( )  );
#180 = PERSON_AND_ORGANIZATION ( #202, #50 ) ;
#181 = CC_DESIGN_SECURITY_CLASSIFICATION ( #138, ( #48 ) ) ;
#182 = APPROVAL ( #140, 'UNSPECIFIED' ) ;
#183 = AXIS2_PLACEMENT_3D ( 'NONE', #41, #92, #128 ) ;
#184 = APPLICATION_CONTEXT ( 'configuration controlled 3d designs of mechanical parts and assemblies' ) ;
#185 = CC_DESIGN_PERSON_AND_ORGANIZATION_ASSIGNMENT ( #26, #157, ( #121 ) ) ;
#186 = PERSON_AND_ORGANIZATION_ROLE ( 'creator' ) ;
#187 = ORIENTED_EDGE ( 'NONE', *, *, #173, .F. ) ;
#188 = ORIENTED_EDGE ( 'NONE', *, *, #52, .F. ) ;
#189 = CARTESIAN_POINT ( 'NONE',  ( 0.0000000000000000000, 0.0000000000000000000, 0.0000000000000000000 ) ) ;
#190 = DIRECTION ( 'NONE',  ( 0.0000000000000000000, 0.0000000000000000000, 1.000000000000000000 ) ) ;
#191 = CYLINDRICAL_SURFACE ( 'NONE', #42, 12.69999999999999900 ) ;
#192 = PRODUCT_RELATED_PRODUCT_CATEGORY ( 'detail', '', ( #112 ) ) ;
#193 = LINE ( 'NONE', #6, #137 ) ;
#194 = CARTESIAN_POINT ( 'NONE',  ( -5.148205994986257600E-014, 12.85225256879559200, -0.3472709941922946800 ) ) ;
#195 = DIRECTION ( 'NONE',  ( 0.0000000000000000000, 0.0000000000000000000, 1.000000000000000000 ) ) ;
#196 = CARTESIAN_POINT ( 'NONE',  ( -12.69999999999999900, 3.997792089092478900E-015, 3.700000000000000600 ) ) ;
#197 = DIRECTION ( 'NONE',  ( 1.000000000000000000, 0.0000000000000000000, 0.0000000000000000000 ) ) ;
#198 = APPROVAL_DATE_TIME ( #201, #182 ) ;
#199 = FACE_OUTER_BOUND ( 'NONE', #228, .T. ) ;
#200 = CC_DESIGN_APPROVAL ( #178, ( #48 ) ) ;
#201 = DATE_AND_TIME ( #19, #156 ) ;
#202 = PERSON ( 'UNSPECIFIED', 'UNSPECIFIED', 'UNSPECIFIED', ('UNSPECIFIED'), ('UNSPECIFIED'), ('UNSPECIFIED') ) ;
#203 = CARTESIAN_POINT ( 'NONE',  ( -4.263343751957965100, 4.288255581136362500, 0.1158697100792375300 ) ) ;
#204 = AXIS2_PLACEMENT_3D ( 'NONE', #189, #190, #109 ) ;
#205 = COORDINATED_UNIVERSAL_TIME_OFFSET ( 2, 0, .AHEAD. ) ;
#206 = FACE_OUTER_BOUND ( 'NONE', #115, .T. ) ;
#207 = PERSON_AND_ORGANIZATION ( #202, #50 ) ;
#208 = APPLICATION_PROTOCOL_DEFINITION ( 'international standard', 'config_control_design', 1994, #35 ) ;
#209 = APPROVAL_PERSON_ORGANIZATION ( #113, #166, #211 ) ;
#210 = EDGE_LOOP ( 'NONE', ( #106, #49, #187 ) ) ;
#211 = APPROVAL_ROLE ( '' ) ;
#212 = CARTESIAN_POINT ( 'NONE',  ( 4.996003610813200500E-016, 2.442490654175340100E-015, -0.3390860911285650300 ) ) ;
#213 = CARTESIAN_POINT ( 'NONE',  ( 12.69999999999999900, 2.442490654175340100E-015, 3.700000000000000600 ) ) ;
#214 = CARTESIAN_POINT ( 'NONE',  ( -5.144458870220789300E-014, 12.69999999999973500, -0.3390860911285651900 ) ) ;
#215 = DIRECTION ( 'NONE',  ( 0.0000000000000000000, 0.0000000000000000000, 1.000000000000000000 ) ) ;
#216 = CC_DESIGN_DATE_AND_TIME_ASSIGNMENT ( #32, #54, ( #121 ) ) ;
#217 = CARTESIAN_POINT ( 'NONE',  ( 12.75748501419694800, 12.85225256879559600, -0.6899366229480606800 ) ) ;
#218 = CARTESIAN_POINT ( 'NONE',  ( -4.937425555697292600E-014, 4.288255581136365200, 0.1158697100792375900 ) ) ;
#219 = DATE_AND_TIME ( #76, #81 ) ;
#220 = VERTEX_POINT ( 'NONE', #196 ) ;
#221 = DIRECTION ( 'NONE',  ( 1.000000000000000000, 0.0000000000000000000, 0.0000000000000000000 ) ) ;
#222 = CARTESIAN_POINT ( 'NONE',  ( -12.75748501419703700, 12.85225256879558800, -0.6899366229480563600 ) ) ;
#223 = VERTEX_POINT ( 'NONE', #163 ) ;
#224 = ORIENTED_EDGE ( 'NONE', *, *, #94, .F. ) ;
#225 = ADVANCED_FACE ( 'NONE', ( #61 ), #191, .T. ) ;
#226 = CARTESIAN_POINT ( 'NONE',  ( -8.525150424189071400, -4.288255581136414000, 0.001397722743917733300 ) ) ;
#227 = AXIS2_PLACEMENT_3D ( 'NONE', #212, #21, #70 ) ;
#228 = EDGE_LOOP ( 'NONE', ( #110, #188, #165 ) ) ;
#229 = CALENDAR_DATE ( 2019, 17, 1 ) ;
#230 = ORIENTED_EDGE ( 'NONE', *, *, #173, .T. ) ;
#231 = EDGE_CURVE ( 'NONE', #43, #233, #145, .T. ) ;
#232 = SECURITY_CLASSIFICATION_LEVEL ( 'unclassified' ) ;
#233 = VERTEX_POINT ( 'NONE', #9 ) ;
#234 = ADVANCED_FACE ( 'NONE', ( #12 ), #152, .F. ) ;
#235 = PERSON_AND_ORGANIZATION ( #202, #50 ) ;
ENDSEC;
END-ISO-10303-21;
