ISO-10303-21;
HEADER;
FILE_DESCRIPTION (( 'STEP AP203' ),
    '1' );
FILE_NAME ('112-1227E UVFS pl-cv 25.4 F-400.STEP',
    '2019-01-17T07:34:11',
    ( '' ),
    ( '' ),
    'SwSTEP 2.0',
    'SolidWorks 2017',
    '' );
FILE_SCHEMA (( 'CONFIG_CONTROL_DESIGN' ));
ENDSEC;

DATA;
#1 = DIRECTION ( 'NONE',  ( 0.0000000000000000000, 0.0000000000000000000, 1.000000000000000000 ) ) ;
#2 = VERTEX_POINT ( 'NONE', #89 ) ;
#3 = DIRECTION ( 'NONE',  ( 0.0000000000000000000, 0.0000000000000000000, 1.000000000000000000 ) ) ;
#4 = EDGE_CURVE ( 'NONE', #146, #160, #31, .T. ) ;
#5 = APPROVAL_PERSON_ORGANIZATION ( #154, #125, #83 ) ;
#6 = CARTESIAN_POINT ( 'NONE',  ( 4.996003610813200500E-016, 2.442490654175340100E-015, -0.4240278350969979800 ) ) ;
#7 = ORIENTED_EDGE ( 'NONE', *, *, #49, .F. ) ;
#8 = DIRECTION ( 'NONE',  ( -0.0000000000000000000, -0.0000000000000000000, -1.000000000000000000 ) ) ;
#9 =( BOUNDED_SURFACE ( )  B_SPLINE_SURFACE ( 3, 3, ( 
 ( #117, #37, #75, #135 ),
 ( #184, #134, #204, #183 ),
 ( #153, #129, #115, #22 ),
 ( #235, #203, #39, #18 ) ),
 .UNSPECIFIED., .F., .F., .F. ) 
 B_SPLINE_SURFACE_WITH_KNOTS ( ( 4, 4 ),
 ( 4, 4 ),
 ( 0.0000000000000000000, 1.000000000000000000 ),
 ( 0.0000000000000000000, 1.000000000000000000 ),
 .UNSPECIFIED. ) 
 GEOMETRIC_REPRESENTATION_ITEM ( )  RATIONAL_B_SPLINE_SURFACE ( (
 ( 1.000000000000000000, 0.9996242555300041100, 0.9996242555300041100, 1.000000000000000000),
 ( 0.9984794759463788700, 0.9981043028048876000, 0.9981043028048876000, 0.9984794759463788700),
 ( 0.9984794759463788700, 0.9981043028048876000, 0.9981043028048876000, 0.9984794759463788700),
 ( 1.000000000000000000, 0.9996242555300041100, 0.9996242555300041100, 1.000000000000000000) ) ) 
 REPRESENTATION_ITEM ( '' )  SURFACE ( )  );
#10 = CC_DESIGN_PERSON_AND_ORGANIZATION_ASSIGNMENT ( #179, #61, ( #108 ) ) ;
#11 = CIRCLE ( 'NONE', #140, 12.69999999999999900 ) ;
#12 = FACE_OUTER_BOUND ( 'NONE', #192, .T. ) ;
#13 = DATE_AND_TIME ( #95, #112 ) ;
#14 = ORIENTED_EDGE ( 'NONE', *, *, #4, .T. ) ;
#15 = CC_DESIGN_DATE_AND_TIME_ASSIGNMENT ( #177, #156, ( #90 ) ) ;
#16 = CARTESIAN_POINT ( 'NONE',  ( 4.996003610813200500E-016, 2.442490654175340100E-015, 3.600000000000000100 ) ) ;
#17 = CARTESIAN_POINT ( 'NONE',  ( -12.74694625167220300, 12.85216949115544000, -0.8624124332390348300 ) ) ;
#18 = CARTESIAN_POINT ( 'NONE',  ( 12.74694625167230000, -12.85216949115536900, -0.8624124332389945200 ) ) ;
#19 = CLOSED_SHELL ( 'NONE', ( #48, #219, #145, #142, #172 ) ) ;
#20 = CC_DESIGN_APPROVAL ( #155, ( #90 ) ) ;
#21 = DIRECTION ( 'NONE',  ( 1.000000000000000000, 0.0000000000000000000, 0.0000000000000000000 ) ) ;
#22 = CARTESIAN_POINT ( 'NONE',  ( 12.78581373472587400, -4.290580427796227200, -0.2844819369995119600 ) ) ;
#23 = DIRECTION ( 'NONE',  ( 1.000000000000000000, 0.0000000000000000000, -0.0000000000000000000 ) ) ;
#24 = APPLICATION_PROTOCOL_DEFINITION ( 'international standard', 'config_control_design', 1994, #136 ) ;
#25 =( NAMED_UNIT ( * ) PLANE_ANGLE_UNIT ( ) SI_UNIT ( $, .RADIAN. ) );
#26 = PERSON ( 'UNSPECIFIED', 'UNSPECIFIED', 'UNSPECIFIED', ('UNSPECIFIED'), ('UNSPECIFIED'), ('UNSPECIFIED') ) ;
#27 = PERSON_AND_ORGANIZATION_ROLE ( 'classification_officer' ) ;
#28 = FACE_OUTER_BOUND ( 'NONE', #230, .T. ) ;
#29 = ADVANCED_BREP_SHAPE_REPRESENTATION ( '112-1227E UVFS pl-cv 25.4 F-400', ( #103, #119 ), #210 ) ;
#30 = EDGE_CURVE ( 'NONE', #152, #2, #161, .T. ) ;
#31 = CIRCLE ( 'NONE', #187, 12.69999999999999900 ) ;
#32 = DIRECTION ( 'NONE',  ( -0.0000000000000000000, -0.0000000000000000000, -1.000000000000000000 ) ) ;
#33 = DIRECTION ( 'NONE',  ( 0.0000000000000000000, 0.0000000000000000000, 1.000000000000000000 ) ) ;
#34 = CALENDAR_DATE ( 2019, 17, 1 ) ;
#35 = DIRECTION ( 'NONE',  ( 0.0000000000000000000, 0.0000000000000000000, 1.000000000000000000 ) ) ;
#36 = DIRECTION ( 'NONE',  ( 0.0000000000000000000, 0.0000000000000000000, 1.000000000000000000 ) ) ;
#37 = CARTESIAN_POINT ( 'NONE',  ( 4.252976263993636200, 12.85216949115544000, -0.4342616697142198100 ) ) ;
#38 = EDGE_CURVE ( 'NONE', #160, #152, #65, .T. ) ;
#39 = CARTESIAN_POINT ( 'NONE',  ( 8.503555479518901400, -12.85216949115536900, -0.5770322361399407000 ) ) ;
#40 = APPROVAL_STATUS ( 'not_yet_approved' ) ;
#41 = MECHANICAL_CONTEXT ( 'NONE', #136, 'mechanical' ) ;
#42 = DATE_AND_TIME ( #56, #189 ) ;
#43 = PRODUCT_RELATED_PRODUCT_CATEGORY ( 'detail', '', ( #185 ) ) ;
#44 = ORIENTED_EDGE ( 'NONE', *, *, #164, .T. ) ;
#45 = APPROVAL_DATE_TIME ( #13, #114 ) ;
#46 = PERSON_AND_ORGANIZATION ( #26, #141 ) ;
#47 = EDGE_LOOP ( 'NONE', ( #107, #51, #102, #123, #197 ) ) ;
#48 = ADVANCED_FACE ( 'NONE', ( #28 ), #137, .F. ) ;
#49 = EDGE_CURVE ( 'NONE', #68, #2, #58, .T. ) ;
#50 = CARTESIAN_POINT ( 'NONE',  ( -12.69999999999999900, 3.997792089092478900E-015, -0.4240278350969979800 ) ) ;
#51 = ORIENTED_EDGE ( 'NONE', *, *, #138, .T. ) ;
#52 = PERSON_AND_ORGANIZATION ( #26, #141 ) ;
#53 = CARTESIAN_POINT ( 'NONE',  ( -8.503555479518823300, -12.85216949115536900, -0.5770322361399548000 ) ) ;
#54 = CARTESIAN_POINT ( 'NONE',  ( -12.69999999999999900, 3.997792089092478900E-015, -0.4240278350969979800 ) ) ;
#55 = DIRECTION ( 'NONE',  ( 1.000000000000000000, 0.0000000000000000000, 0.0000000000000000000 ) ) ;
#56 = CALENDAR_DATE ( 2019, 17, 1 ) ;
#57 = DIRECTION ( 'NONE',  ( 0.0000000000000000000, 0.0000000000000000000, 1.000000000000000000 ) ) ;
#58 = LINE ( 'NONE', #133, #104 ) ;
#59 = DIRECTION ( 'NONE',  ( 0.0000000000000000000, 0.0000000000000000000, 1.000000000000000000 ) ) ;
#60 = DATE_AND_TIME ( #193, #91 ) ;
#61 = PERSON_AND_ORGANIZATION_ROLE ( 'creator' ) ;
#62 = AXIS2_PLACEMENT_3D ( 'NONE', #118, #3, #23 ) ;
#63 = CYLINDRICAL_SURFACE ( 'NONE', #234, 12.69999999999999900 ) ;
#64 = DIRECTION ( 'NONE',  ( 1.000000000000000000, 0.0000000000000000000, 0.0000000000000000000 ) ) ;
#65 = LINE ( 'NONE', #50, #217 ) ;
#66 = SHAPE_DEFINITION_REPRESENTATION ( #205, #29 ) ;
#67 = CYLINDRICAL_SURFACE ( 'NONE', #170, 12.69999999999999900 ) ;
#68 = VERTEX_POINT ( 'NONE', #201 ) ;
#69 = CARTESIAN_POINT ( 'NONE',  ( -12.78581373472577800, -4.290580427796227200, -0.2844819369995245700 ) ) ;
#70 = CARTESIAN_POINT ( 'NONE',  ( -3.469446951953614200E-015, -12.85216949115536900, -0.4342616697142148700 ) ) ;
#71 = FACE_OUTER_BOUND ( 'NONE', #194, .T. ) ;
#72 = CARTESIAN_POINT ( 'NONE',  ( -3.469446951953614200E-015, 12.85216949115544000, -0.4342616697142426300 ) ) ;
#73 = CC_DESIGN_APPROVAL ( #114, ( #229 ) ) ;
#74 = CARTESIAN_POINT ( 'NONE',  ( 4.263256414560599900E-014, -12.69999999999986300, -0.4240278350969915500 ) ) ;
#75 = CARTESIAN_POINT ( 'NONE',  ( 8.503555479518899700, 12.85216949115544000, -0.5770322361399686800 ) ) ;
#76 = LOCAL_TIME ( 9, 34, 11.00000000000000000, #173 ) ;
#77 = CC_DESIGN_PERSON_AND_ORGANIZATION_ASSIGNMENT ( #196, #81, ( #185 ) ) ;
#78 = ORIENTED_EDGE ( 'NONE', *, *, #171, .F. ) ;
#79 = CARTESIAN_POINT ( 'NONE',  ( 4.263256414560599900E-014, 12.69999999999991900, -0.4240278350969915500 ) ) ;
#80 = DIRECTION ( 'NONE',  ( 1.000000000000000000, 0.0000000000000000000, 0.0000000000000000000 ) ) ;
#81 = PERSON_AND_ORGANIZATION_ROLE ( 'design_owner' ) ;
#82 = SECURITY_CLASSIFICATION_LEVEL ( 'unclassified' ) ;
#83 = APPROVAL_ROLE ( '' ) ;
#84 = EDGE_LOOP ( 'NONE', ( #98, #182 ) ) ;
#85 = FACE_OUTER_BOUND ( 'NONE', #84, .T. ) ;
#86 = CC_DESIGN_PERSON_AND_ORGANIZATION_ASSIGNMENT ( #231, #209, ( #229 ) ) ;
#87 = LOCAL_TIME ( 9, 34, 11.00000000000000000, #126 ) ;
#88 = ORIENTED_EDGE ( 'NONE', *, *, #138, .F. ) ;
#89 = CARTESIAN_POINT ( 'NONE',  ( 12.69999999999999900, 2.442490654175340100E-015, 3.600000000000000100 ) ) ;
#90 = SECURITY_CLASSIFICATION ( '', '', #82 ) ;
#91 = LOCAL_TIME ( 9, 34, 11.00000000000000000, #222 ) ;
#92 = CARTESIAN_POINT ( 'NONE',  ( -12.78581373472577800, 4.290580427796300900, -0.2844819369995543200 ) ) ;
#93 = CARTESIAN_POINT ( 'NONE',  ( -8.529484183693909900, 4.290580427796300900, 0.001768430080258543600 ) ) ;
#94 = DIRECTION ( 'NONE',  ( 1.000000000000000000, 0.0000000000000000000, 0.0000000000000000000 ) ) ;
#95 = CALENDAR_DATE ( 2019, 17, 1 ) ;
#96 = CARTESIAN_POINT ( 'NONE',  ( 4.996003610813200500E-016, 2.442490654175340100E-015, -0.4240278350969979800 ) ) ;
#97 = AXIS2_PLACEMENT_3D ( 'NONE', #202, #120, #181 ) ;
#98 = ORIENTED_EDGE ( 'NONE', *, *, #227, .F. ) ;
#99 = DESIGN_CONTEXT ( 'detailed design', #157, 'design' ) ;
#100 = CARTESIAN_POINT ( 'NONE',  ( -12.69999999999999900, 3.997792089092478900E-015, 3.600000000000000100 ) ) ;
#101 = CARTESIAN_POINT ( 'NONE',  ( 4.996003610813200500E-016, 2.442490654175340100E-015, -0.4240278350969979800 ) ) ;
#102 = ORIENTED_EDGE ( 'NONE', *, *, #171, .T. ) ;
#103 = MANIFOLD_SOLID_BREP ( 'Imported1', #19 ) ;
#104 = VECTOR ( 'NONE', #35, 1000.000000000000000 ) ;
#105 = CC_DESIGN_DATE_AND_TIME_ASSIGNMENT ( #42, #169, ( #229 ) ) ;
#106 = APPLICATION_PROTOCOL_DEFINITION ( 'international standard', 'config_control_design', 1994, #157 ) ;
#107 = ORIENTED_EDGE ( 'NONE', *, *, #38, .F. ) ;
#108 = PRODUCT_DEFINITION_FORMATION_WITH_SPECIFIED_SOURCE ( 'ANY', '', #185, .NOT_KNOWN. ) ;
#109 = COORDINATED_UNIVERSAL_TIME_OFFSET ( 2, 0, .AHEAD. ) ;
#110 = CARTESIAN_POINT ( 'NONE',  ( -8.529484183693909900, -4.290580427796227200, 0.001768430080288250700 ) ) ;
#111 = CARTESIAN_POINT ( 'NONE',  ( -8.503555479518823300, 12.85216949115544000, -0.5770322361399826700 ) ) ;
#112 = LOCAL_TIME ( 9, 34, 11.00000000000000000, #109 ) ;
#113 = CARTESIAN_POINT ( 'NONE',  ( -4.265944270573691600, 4.290580427796300900, 0.1449743268558351700 ) ) ;
#114 = APPROVAL ( #40, 'UNSPECIFIED' ) ;
#115 = CARTESIAN_POINT ( 'NONE',  ( 8.529484183693986300, -4.290580427796227200, 0.001768430080302237000 ) ) ;
#116 = ORIENTED_EDGE ( 'NONE', *, *, #163, .T. ) ;
#117 = CARTESIAN_POINT ( 'NONE',  ( 4.263256414560599900E-014, 12.85216949115544000, -0.4342616697142198700 ) ) ;
#118 = CARTESIAN_POINT ( 'NONE',  ( 0.0000000000000000000, 26.11199999999999800, 3.600000000000000500 ) ) ;
#119 = AXIS2_PLACEMENT_3D ( 'NONE', #190, #59, #64 ) ;
#120 = DIRECTION ( 'NONE',  ( 0.0000000000000000000, 0.0000000000000000000, 1.000000000000000000 ) ) ;
#121 = ORIENTED_EDGE ( 'NONE', *, *, #4, .F. ) ;
#122 = CARTESIAN_POINT ( 'NONE',  ( 4.996003610813200500E-016, 2.442490654175340100E-015, 3.600000000000000100 ) ) ;
#123 = ORIENTED_EDGE ( 'NONE', *, *, #49, .T. ) ;
#124 = CIRCLE ( 'NONE', #149, 190.4000000000000100 ) ;
#125 = APPROVAL ( #139, 'UNSPECIFIED' ) ;
#126 = COORDINATED_UNIVERSAL_TIME_OFFSET ( 2, 0, .AHEAD. ) ;
#127 = CC_DESIGN_PERSON_AND_ORGANIZATION_ASSIGNMENT ( #52, #27, ( #90 ) ) ;
#128 = CARTESIAN_POINT ( 'NONE',  ( -12.74694625167220400, -12.85216949115536900, -0.8624124332390070700 ) ) ;
#129 = CARTESIAN_POINT ( 'NONE',  ( 4.265944270573750300, -4.290580427796227200, 0.1449743268558886500 ) ) ;
#130 = CIRCLE ( 'NONE', #195, 12.69999999999999900 ) ;
#131 = DIRECTION ( 'NONE',  ( 0.0000000000000000000, 0.0000000000000000000, 1.000000000000000000 ) ) ;
#132 = AXIS2_PLACEMENT_3D ( 'NONE', #101, #131, #55 ) ;
#133 = CARTESIAN_POINT ( 'NONE',  ( 12.69999999999999900, 2.442490654175340100E-015, -0.4240278350969979800 ) ) ;
#134 = CARTESIAN_POINT ( 'NONE',  ( 4.265944270573750300, 4.290580427796300900, 0.1449743268558589500 ) ) ;
#135 = CARTESIAN_POINT ( 'NONE',  ( 12.74694625167229700, 12.85216949115544000, -0.8624124332390222800 ) ) ;
#136 = APPLICATION_CONTEXT ( 'configuration controlled 3d designs of mechanical parts and assemblies' ) ;
#137 =( BOUNDED_SURFACE ( )  B_SPLINE_SURFACE ( 3, 3, ( 
 ( #17, #111, #176, #72 ),
 ( #92, #93, #113, #166 ),
 ( #69, #110, #218, #232 ),
 ( #128, #53, #178, #70 ) ),
 .UNSPECIFIED., .F., .F., .F. ) 
 B_SPLINE_SURFACE_WITH_KNOTS ( ( 4, 4 ),
 ( 4, 4 ),
 ( 0.0000000000000000000, 1.000000000000000000 ),
 ( 0.0000000000000000000, 1.000000000000000000 ),
 .UNSPECIFIED. ) 
 GEOMETRIC_REPRESENTATION_ITEM ( )  RATIONAL_B_SPLINE_SURFACE ( (
 ( 1.000000000000000000, 0.9996242555300041100, 0.9996242555300041100, 1.000000000000000000),
 ( 0.9984794759463788700, 0.9981043028048876000, 0.9981043028048876000, 0.9984794759463788700),
 ( 0.9984794759463788700, 0.9981043028048876000, 0.9981043028048876000, 0.9984794759463788700),
 ( 1.000000000000000000, 0.9996242555300041100, 0.9996242555300041100, 1.000000000000000000) ) ) 
 REPRESENTATION_ITEM ( '' )  SURFACE ( )  );
#138 = EDGE_CURVE ( 'NONE', #160, #198, #186, .T. ) ;
#139 = APPROVAL_STATUS ( 'not_yet_approved' ) ;
#140 = AXIS2_PLACEMENT_3D ( 'NONE', #6, #1, #21 ) ;
#141 = ORGANIZATION ( 'UNSPECIFIED', 'UNSPECIFIED', '' ) ;
#142 = ADVANCED_FACE ( 'NONE', ( #233 ), #63, .T. ) ;
#143 = DATE_AND_TIME ( #34, #76 ) ;
#144 = CC_DESIGN_APPROVAL ( #125, ( #108 ) ) ;
#145 = ADVANCED_FACE ( 'NONE', ( #12 ), #9, .F. ) ;
#146 = VERTEX_POINT ( 'NONE', #79 ) ;
#147 = APPROVAL_PERSON_ORGANIZATION ( #213, #114, #228 ) ;
#148 = ORIENTED_EDGE ( 'NONE', *, *, #38, .T. ) ;
#149 = AXIS2_PLACEMENT_3D ( 'NONE', #221, #150, #180 ) ;
#150 = DIRECTION ( 'NONE',  ( 1.000000000000000000, 0.0000000000000000000, 0.0000000000000000000 ) ) ;
#151 = CARTESIAN_POINT ( 'NONE',  ( 4.996003610813200500E-016, 2.442490654175340100E-015, -0.4240278350969979800 ) ) ;
#152 = VERTEX_POINT ( 'NONE', #100 ) ;
#153 = CARTESIAN_POINT ( 'NONE',  ( 4.263256414560599200E-014, -4.290580427796227200, 0.1449743268558886800 ) ) ;
#154 = PERSON_AND_ORGANIZATION ( #26, #141 ) ;
#155 = APPROVAL ( #208, 'UNSPECIFIED' ) ;
#156 = DATE_TIME_ROLE ( 'classification_date' ) ;
#157 = APPLICATION_CONTEXT ( 'configuration controlled 3d designs of mechanical parts and assemblies' ) ;
#158 = APPROVAL_DATE_TIME ( #60, #125 ) ;
#159 =( LENGTH_UNIT ( ) NAMED_UNIT ( * ) SI_UNIT ( .MILLI., .METRE. ) );
#160 = VERTEX_POINT ( 'NONE', #54 ) ;
#161 = CIRCLE ( 'NONE', #212, 12.69999999999999900 ) ;
#162 = COORDINATED_UNIVERSAL_TIME_OFFSET ( 2, 0, .AHEAD. ) ;
#163 = EDGE_CURVE ( 'NONE', #146, #198, #124, .T. ) ;
#164 = EDGE_CURVE ( 'NONE', #68, #146, #11, .T. ) ;
#165 = CARTESIAN_POINT ( 'NONE',  ( 4.996003610813200500E-016, 2.442490654175340100E-015, -0.4240278350969979800 ) ) ;
#166 = CARTESIAN_POINT ( 'NONE',  ( -3.469446951953613800E-015, 4.290580427796300900, 0.1449743268558361900 ) ) ;
#167 = PERSON_AND_ORGANIZATION ( #26, #141 ) ;
#168 = APPROVAL_PERSON_ORGANIZATION ( #46, #155, #211 ) ;
#169 = DATE_TIME_ROLE ( 'creation_date' ) ;
#170 = AXIS2_PLACEMENT_3D ( 'NONE', #151, #57, #200 ) ;
#171 = EDGE_CURVE ( 'NONE', #198, #68, #175, .T. ) ;
#172 = ADVANCED_FACE ( 'NONE', ( #85 ), #223, .T. ) ;
#173 = COORDINATED_UNIVERSAL_TIME_OFFSET ( 2, 0, .AHEAD. ) ;
#174 = ORIENTED_EDGE ( 'NONE', *, *, #163, .F. ) ;
#175 = CIRCLE ( 'NONE', #132, 12.69999999999999900 ) ;
#176 = CARTESIAN_POINT ( 'NONE',  ( -4.252976263993579300, 12.85216949115544000, -0.4342616697142436800 ) ) ;
#177 = DATE_AND_TIME ( #224, #87 ) ;
#178 = CARTESIAN_POINT ( 'NONE',  ( -4.252976263993579300, -12.85216949115536900, -0.4342616697142158700 ) ) ;
#179 = PERSON_AND_ORGANIZATION ( #26, #141 ) ;
#180 = DIRECTION ( 'NONE',  ( 0.0000000000000000000, 1.000000000000000000, 2.915501640297154800E-016 ) ) ;
#181 = DIRECTION ( 'NONE',  ( 1.000000000000000000, 0.0000000000000000000, 0.0000000000000000000 ) ) ;
#182 = ORIENTED_EDGE ( 'NONE', *, *, #30, .F. ) ;
#183 = CARTESIAN_POINT ( 'NONE',  ( 12.78581373472587200, 4.290580427796300900, -0.2844819369995415000 ) ) ;
#184 = CARTESIAN_POINT ( 'NONE',  ( 4.263256414560599200E-014, 4.290580427796300900, 0.1449743268558589500 ) ) ;
#185 = PRODUCT ( '112-1227E UVFS pl-cv 25.4 F-400', '112-1227E UVFS pl-cv 25.4 F-400', '', ( #41 ) ) ;
#186 = CIRCLE ( 'NONE', #97, 12.69999999999999900 ) ;
#187 = AXIS2_PLACEMENT_3D ( 'NONE', #165, #33, #220 ) ;
#188 = PERSON_AND_ORGANIZATION_ROLE ( 'design_supplier' ) ;
#189 = LOCAL_TIME ( 9, 34, 11.00000000000000000, #162 ) ;
#190 = CARTESIAN_POINT ( 'NONE',  ( 0.0000000000000000000, 0.0000000000000000000, 0.0000000000000000000 ) ) ;
#191 = APPROVAL_DATE_TIME ( #143, #155 ) ;
#192 = EDGE_LOOP ( 'NONE', ( #174, #207, #78 ) ) ;
#193 = CALENDAR_DATE ( 2019, 17, 1 ) ;
#194 = EDGE_LOOP ( 'NONE', ( #44, #14, #148, #206, #7 ) ) ;
#195 = AXIS2_PLACEMENT_3D ( 'NONE', #122, #8, #80 ) ;
#196 = PERSON_AND_ORGANIZATION ( #26, #141 ) ;
#197 = ORIENTED_EDGE ( 'NONE', *, *, #227, .T. ) ;
#198 = VERTEX_POINT ( 'NONE', #74 ) ;
#199 = CC_DESIGN_SECURITY_CLASSIFICATION ( #90, ( #108 ) ) ;
#200 = DIRECTION ( 'NONE',  ( 1.000000000000000000, 0.0000000000000000000, 0.0000000000000000000 ) ) ;
#201 = CARTESIAN_POINT ( 'NONE',  ( 12.69999999999999900, 2.442490654175340100E-015, -0.4240278350969979800 ) ) ;
#202 = CARTESIAN_POINT ( 'NONE',  ( 4.996003610813200500E-016, 2.442490654175340100E-015, -0.4240278350969979800 ) ) ;
#203 = CARTESIAN_POINT ( 'NONE',  ( 4.252976263993636200, -12.85216949115536900, -0.4342616697141920600 ) ) ;
#204 = CARTESIAN_POINT ( 'NONE',  ( 8.529484183693986300, 4.290580427796300900, 0.001768430080272584000 ) ) ;
#205 = PRODUCT_DEFINITION_SHAPE ( 'NONE', 'NONE',  #229 ) ;
#206 = ORIENTED_EDGE ( 'NONE', *, *, #30, .T. ) ;
#207 = ORIENTED_EDGE ( 'NONE', *, *, #164, .F. ) ;
#208 = APPROVAL_STATUS ( 'not_yet_approved' ) ;
#209 = PERSON_AND_ORGANIZATION_ROLE ( 'creator' ) ;
#210 =( GEOMETRIC_REPRESENTATION_CONTEXT ( 3 ) GLOBAL_UNCERTAINTY_ASSIGNED_CONTEXT ( ( #226 ) ) GLOBAL_UNIT_ASSIGNED_CONTEXT ( ( #159, #25, #225 ) ) REPRESENTATION_CONTEXT ( 'NONE', 'WORKASPACE' ) );
#211 = APPROVAL_ROLE ( '' ) ;
#212 = AXIS2_PLACEMENT_3D ( 'NONE', #16, #32, #214 ) ;
#213 = PERSON_AND_ORGANIZATION ( #26, #141 ) ;
#214 = DIRECTION ( 'NONE',  ( 1.000000000000000000, 0.0000000000000000000, 0.0000000000000000000 ) ) ;
#215 = CC_DESIGN_PERSON_AND_ORGANIZATION_ASSIGNMENT ( #167, #188, ( #108 ) ) ;
#216 = DIRECTION ( 'NONE',  ( 0.0000000000000000000, 0.0000000000000000000, 1.000000000000000000 ) ) ;
#217 = VECTOR ( 'NONE', #216, 1000.000000000000000 ) ;
#218 = CARTESIAN_POINT ( 'NONE',  ( -4.265944270573690700, -4.290580427796227200, 0.1449743268558648100 ) ) ;
#219 = ADVANCED_FACE ( 'NONE', ( #71 ), #67, .T. ) ;
#220 = DIRECTION ( 'NONE',  ( 1.000000000000000000, 0.0000000000000000000, 0.0000000000000000000 ) ) ;
#221 = CARTESIAN_POINT ( 'NONE',  ( 4.263256414560599900E-014, 5.684341886080800200E-014, -190.4000000000000100 ) ) ;
#222 = COORDINATED_UNIVERSAL_TIME_OFFSET ( 2, 0, .AHEAD. ) ;
#223 = PLANE ( 'NONE',  #62 ) ;
#224 = CALENDAR_DATE ( 2019, 17, 1 ) ;
#225 =( NAMED_UNIT ( * ) SI_UNIT ( $, .STERADIAN. ) SOLID_ANGLE_UNIT ( ) );
#226 = UNCERTAINTY_MEASURE_WITH_UNIT (LENGTH_MEASURE( 1.000000000000000100E-005 ), #159, 'distance_accuracy_value', 'NONE');
#227 = EDGE_CURVE ( 'NONE', #2, #152, #130, .T. ) ;
#228 = APPROVAL_ROLE ( '' ) ;
#229 = PRODUCT_DEFINITION ( 'UNKNOWN', '', #108, #99 ) ;
#230 = EDGE_LOOP ( 'NONE', ( #121, #116, #88 ) ) ;
#231 = PERSON_AND_ORGANIZATION ( #26, #141 ) ;
#232 = CARTESIAN_POINT ( 'NONE',  ( -1.734723475976806900E-015, -4.290580427796227200, 0.1449743268558658100 ) ) ;
#233 = FACE_OUTER_BOUND ( 'NONE', #47, .T. ) ;
#234 = AXIS2_PLACEMENT_3D ( 'NONE', #96, #36, #94 ) ;
#235 = CARTESIAN_POINT ( 'NONE',  ( 4.263256414560599900E-014, -12.85216949115536900, -0.4342616697141921100 ) ) ;
ENDSEC;
END-ISO-10303-21;
