ISO-10303-21;
HEADER;
FILE_DESCRIPTION (( 'STEP AP203' ),
    '1' );
FILE_NAME ('112-1223E UVFS pl-cv 25.4 F-300.STEP',
    '2019-01-17T07:09:30',
    ( '' ),
    ( '' ),
    'SwSTEP 2.0',
    'SolidWorks 2017',
    '' );
FILE_SCHEMA (( 'CONFIG_CONTROL_DESIGN' ));
ENDSEC;

DATA;
#1 = CARTESIAN_POINT ( 'NONE',  ( 8.538876032708277100, 4.295618278464559100, 0.002419461804565703500 ) ) ;
#2 = DIRECTION ( 'NONE',  ( 1.000000000000000000, 0.0000000000000000000, 0.0000000000000000000 ) ) ;
#3 = EDGE_CURVE ( 'NONE', #95, #140, #39, .T. ) ;
#4 = DIRECTION ( 'NONE',  ( 0.0000000000000000000, 0.0000000000000000000, 1.000000000000000000 ) ) ;
#5 = PERSON_AND_ORGANIZATION_ROLE ( 'classification_officer' ) ;
#6 = DIRECTION ( 'NONE',  ( 0.0000000000000000000, 0.0000000000000000000, 1.000000000000000000 ) ) ;
#7 = DIRECTION ( 'NONE',  ( 1.000000000000000000, 0.0000000000000000000, 0.0000000000000000000 ) ) ;
#8 = VECTOR ( 'NONE', #194, 1000.000000000000000 ) ;
#9 = EDGE_CURVE ( 'NONE', #97, #145, #115, .T. ) ;
#10 = LINE ( 'NONE', #18, #8 ) ;
#11 = COORDINATED_UNIVERSAL_TIME_OFFSET ( 2, 0, .AHEAD. ) ;
#12 = CARTESIAN_POINT ( 'NONE',  ( -12.79332616360807500, -4.295618278464517400, -0.3797492810296574400 ) ) ;
#13 = COORDINATED_UNIVERSAL_TIME_OFFSET ( 2, 0, .AHEAD. ) ;
#14 = APPROVAL_DATE_TIME ( #168, #60 ) ;
#15 = CARTESIAN_POINT ( 'NONE',  ( -2.924942263733477800E-014, 12.85198963798316500, -0.5795149693787471400 ) ) ;
#16 = CARTESIAN_POINT ( 'NONE',  ( 8.538876032708275300, -4.295618278464515600, 0.002419461804566570800 ) ) ;
#17 = EDGE_LOOP ( 'NONE', ( #89, #224, #231 ) ) ;
#18 = CARTESIAN_POINT ( 'NONE',  ( 12.69999999999999900, 2.442490654175340100E-015, -0.5658620443038641100 ) ) ;
#19 = AXIS2_PLACEMENT_3D ( 'NONE', #188, #29, #84 ) ;
#20 = PRODUCT ( '112-1223E UVFS pl-cv 25.4 F-300', '112-1223E UVFS pl-cv 25.4 F-300', '', ( #130 ) ) ;
#21 = AXIS2_PLACEMENT_3D ( 'NONE', #218, #49, #176 ) ;
#22 = COORDINATED_UNIVERSAL_TIME_OFFSET ( 2, 0, .AHEAD. ) ;
#23 = DATE_TIME_ROLE ( 'creation_date' ) ;
#24 = PERSON_AND_ORGANIZATION_ROLE ( 'creator' ) ;
#25 = CIRCLE ( 'NONE', #207, 12.69999999999999900 ) ;
#26 = PERSON_AND_ORGANIZATION ( #54, #119 ) ;
#27 = ORIENTED_EDGE ( 'NONE', *, *, #230, .T. ) ;
#28 = APPROVAL_PERSON_ORGANIZATION ( #116, #169, #93 ) ;
#29 = DIRECTION ( 'NONE',  ( -0.0000000000000000000, -0.0000000000000000000, -1.000000000000000000 ) ) ;
#30 = AXIS2_PLACEMENT_3D ( 'NONE', #46, #211, #134 ) ;
#31 = ORIENTED_EDGE ( 'NONE', *, *, #230, .F. ) ;
#32 = ADVANCED_FACE ( 'NONE', ( #34 ), #94, .T. ) ;
#33 = CARTESIAN_POINT ( 'NONE',  ( -2.940844308768423100E-014, -4.295618278464517400, 0.1936956973377406100 ) ) ;
#34 = FACE_OUTER_BOUND ( 'NONE', #221, .T. ) ;
#35 = ADVANCED_FACE ( 'NONE', ( #187 ), #85, .T. ) ;
#36 = AXIS2_PLACEMENT_3D ( 'NONE', #53, #78, #77 ) ;
#37 = CARTESIAN_POINT ( 'NONE',  ( -12.69999999999999900, 3.997792089092478900E-015, -0.5658620443038641100 ) ) ;
#38 = CARTESIAN_POINT ( 'NONE',  ( -2.924942263733477800E-014, -12.85198963798312200, -0.5795149693787471400 ) ) ;
#39 = CIRCLE ( 'NONE', #19, 12.69999999999999900 ) ;
#40 = APPROVAL_STATUS ( 'not_yet_approved' ) ;
#41 = EDGE_LOOP ( 'NONE', ( #131, #184, #31 ) ) ;
#42 = APPROVAL_DATE_TIME ( #101, #169 ) ;
#43 =( GEOMETRIC_REPRESENTATION_CONTEXT ( 3 ) GLOBAL_UNCERTAINTY_ASSIGNED_CONTEXT ( ( #65 ) ) GLOBAL_UNIT_ASSIGNED_CONTEXT ( ( #180, #205, #57 ) ) REPRESENTATION_CONTEXT ( 'NONE', 'WORKASPACE' ) );
#44 = AXIS2_PLACEMENT_3D ( 'NONE', #199, #103, #2 ) ;
#45 = CIRCLE ( 'NONE', #73, 12.69999999999999900 ) ;
#46 = CARTESIAN_POINT ( 'NONE',  ( 4.996003610813200500E-016, 2.442490654175340100E-015, -0.5658620443038641100 ) ) ;
#47 = ORIENTED_EDGE ( 'NONE', *, *, #192, .F. ) ;
#48 = AXIS2_PLACEMENT_3D ( 'NONE', #191, #100, #137 ) ;
#49 = DIRECTION ( 'NONE',  ( -0.0000000000000000000, -0.0000000000000000000, -1.000000000000000000 ) ) ;
#50 = CARTESIAN_POINT ( 'NONE',  ( 12.69999999999999900, 2.442490654175340100E-015, -0.5658620443038641100 ) ) ;
#51 = ADVANCED_FACE ( 'NONE', ( #132 ), #189, .F. ) ;
#52 = DIRECTION ( 'NONE',  ( 1.000000000000000000, 0.0000000000000000000, 0.0000000000000000000 ) ) ;
#53 = CARTESIAN_POINT ( 'NONE',  ( 0.0000000000000000000, 2.842170943040400100E-014, -142.8000000000000100 ) ) ;
#54 = PERSON ( 'UNSPECIFIED', 'UNSPECIFIED', 'UNSPECIFIED', ('UNSPECIFIED'), ('UNSPECIFIED'), ('UNSPECIFIED') ) ;
#55 = ADVANCED_BREP_SHAPE_REPRESENTATION ( '112-1223E UVFS pl-cv 25.4 F-300', ( #144, #56 ), #43 ) ;
#56 = AXIS2_PLACEMENT_3D ( 'NONE', #203, #181, #7 ) ;
#57 =( NAMED_UNIT ( * ) SI_UNIT ( $, .STERADIAN. ) SOLID_ANGLE_UNIT ( ) );
#58 = SECURITY_CLASSIFICATION_LEVEL ( 'unclassified' ) ;
#59 = LOCAL_TIME ( 9, 9, 30.00000000000000000, #81 ) ;
#60 = APPROVAL ( #90, 'UNSPECIFIED' ) ;
#61 = CIRCLE ( 'NONE', #36, 142.7999999999999800 ) ;
#62 = CARTESIAN_POINT ( 'NONE',  ( -8.492703717222234200, 12.85198963798316600, -0.7697569157785154600 ) ) ;
#63 = PRODUCT_RELATED_PRODUCT_CATEGORY ( 'detail', '', ( #20 ) ) ;
#64 = DIRECTION ( 'NONE',  ( 0.0000000000000000000, 0.0000000000000000000, 1.000000000000000000 ) ) ;
#65 = UNCERTAINTY_MEASURE_WITH_UNIT (LENGTH_MEASURE( 1.000000000000000100E-005 ), #180, 'distance_accuracy_value', 'NONE');
#66 = CARTESIAN_POINT ( 'NONE',  ( -4.271580370812765500, 4.295618278464559100, 0.1936956973377539600 ) ) ;
#67 = APPROVAL_PERSON_ORGANIZATION ( #114, #148, #75 ) ;
#68 = ADVANCED_FACE ( 'NONE', ( #182 ), #204, .F. ) ;
#69 = CARTESIAN_POINT ( 'NONE',  ( -2.940844308768423100E-014, 4.295618278464559100, 0.1936956973377397500 ) ) ;
#70 = CARTESIAN_POINT ( 'NONE',  ( 12.69999999999999900, 2.442490654175340100E-015, 3.400000000000000400 ) ) ;
#71 = CIRCLE ( 'NONE', #96, 12.69999999999999900 ) ;
#72 = CARTESIAN_POINT ( 'NONE',  ( 4.248482628703563100, -12.85198963798312600, -0.5795149693787463600 ) ) ;
#73 = AXIS2_PLACEMENT_3D ( 'NONE', #222, #6, #109 ) ;
#74 = DIRECTION ( 'NONE',  ( 0.0000000000000000000, 0.0000000000000000000, 1.000000000000000000 ) ) ;
#75 = APPROVAL_ROLE ( '' ) ;
#76 = DATE_AND_TIME ( #151, #59 ) ;
#77 = DIRECTION ( 'NONE',  ( 0.0000000000000000000, 1.000000000000000000, 0.0000000000000000000 ) ) ;
#78 = DIRECTION ( 'NONE',  ( 1.000000000000000000, 0.0000000000000000000, 2.056625150099659900E-016 ) ) ;
#79 = EDGE_LOOP ( 'NONE', ( #104, #226, #83, #88, #82 ) ) ;
#80 = VERTEX_POINT ( 'NONE', #102 ) ;
#81 = COORDINATED_UNIVERSAL_TIME_OFFSET ( 2, 0, .AHEAD. ) ;
#82 = ORIENTED_EDGE ( 'NONE', *, *, #225, .F. ) ;
#83 = ORIENTED_EDGE ( 'NONE', *, *, #177, .T. ) ;
#84 = DIRECTION ( 'NONE',  ( 1.000000000000000000, 0.0000000000000000000, 0.0000000000000000000 ) ) ;
#85 = PLANE ( 'NONE',  #233 ) ;
#86 = CC_DESIGN_SECURITY_CLASSIFICATION ( #154, ( #202 ) ) ;
#87 = CARTESIAN_POINT ( 'NONE',  ( -4.248482628703633200, -12.85198963798312600, -0.5795149693787334800 ) ) ;
#88 = ORIENTED_EDGE ( 'NONE', *, *, #192, .T. ) ;
#89 = ORIENTED_EDGE ( 'NONE', *, *, #129, .F. ) ;
#90 = APPROVAL_STATUS ( 'not_yet_approved' ) ;
#91 = CC_DESIGN_APPROVAL ( #60, ( #133 ) ) ;
#92 = CLOSED_SHELL ( 'NONE', ( #51, #197, #68, #32, #35 ) ) ;
#93 = APPROVAL_ROLE ( '' ) ;
#94 = CYLINDRICAL_SURFACE ( 'NONE', #30, 12.69999999999999900 ) ;
#95 = VERTEX_POINT ( 'NONE', #70 ) ;
#96 = AXIS2_PLACEMENT_3D ( 'NONE', #193, #4, #52 ) ;
#97 = VERTEX_POINT ( 'NONE', #37 ) ;
#98 = PERSON_AND_ORGANIZATION ( #54, #119 ) ;
#99 = CARTESIAN_POINT ( 'NONE',  ( -6.245004513516504300E-014, -4.295618278464517400, 0.1936956973377564600 ) ) ;
#100 = DIRECTION ( 'NONE',  ( 0.0000000000000000000, 0.0000000000000000000, 1.000000000000000000 ) ) ;
#101 = DATE_AND_TIME ( #157, #166 ) ;
#102 = CARTESIAN_POINT ( 'NONE',  ( -2.925223053224292300E-014, 12.69999999999983800, -0.5658620443038652200 ) ) ;
#103 = DIRECTION ( 'NONE',  ( 0.0000000000000000000, 0.0000000000000000000, 1.000000000000000000 ) ) ;
#104 = ORIENTED_EDGE ( 'NONE', *, *, #122, .T. ) ;
#105 = CARTESIAN_POINT ( 'NONE',  ( -6.418476861114186200E-014, -12.85198963798312200, -0.5795149693787313700 ) ) ;
#106 = CC_DESIGN_APPROVAL ( #148, ( #202 ) ) ;
#107 = CARTESIAN_POINT ( 'NONE',  ( 8.492703717222186200, -12.85198963798312600, -0.7697569157785273400 ) ) ;
#108 = PERSON_AND_ORGANIZATION_ROLE ( 'creator' ) ;
#109 = DIRECTION ( 'NONE',  ( 1.000000000000000000, 0.0000000000000000000, 0.0000000000000000000 ) ) ;
#110 = PERSON_AND_ORGANIZATION ( #54, #119 ) ;
#111 = CALENDAR_DATE ( 2019, 17, 1 ) ;
#112 = APPLICATION_CONTEXT ( 'configuration controlled 3d designs of mechanical parts and assemblies' ) ;
#113 = CIRCLE ( 'NONE', #21, 12.69999999999999900 ) ;
#114 = PERSON_AND_ORGANIZATION ( #54, #119 ) ;
#115 = CIRCLE ( 'NONE', #48, 12.69999999999999900 ) ;
#116 = PERSON_AND_ORGANIZATION ( #54, #119 ) ;
#117 = CC_DESIGN_PERSON_AND_ORGANIZATION_ASSIGNMENT ( #141, #146, ( #202 ) ) ;
#118 = CARTESIAN_POINT ( 'NONE',  ( -12.72414873446167000, 12.85198963798316500, -1.149859155281929300 ) ) ;
#119 = ORGANIZATION ( 'UNSPECIFIED', 'UNSPECIFIED', '' ) ;
#120 = CARTESIAN_POINT ( 'NONE',  ( -8.492703717222234200, -12.85198963798312600, -0.7697569157785154600 ) ) ;
#121 = CARTESIAN_POINT ( 'NONE',  ( 12.79332616360804800, 4.295618278464559100, -0.3797492810296712600 ) ) ;
#122 = EDGE_CURVE ( 'NONE', #217, #80, #25, .T. ) ;
#123 = ORIENTED_EDGE ( 'NONE', *, *, #3, .F. ) ;
#124 = CARTESIAN_POINT ( 'NONE',  ( -2.925223053224292300E-014, -12.69999999999980900, -0.5658620443038652200 ) ) ;
#125 = CARTESIAN_POINT ( 'NONE',  ( 4.996003610813200500E-016, 2.442490654175340100E-015, -0.5658620443038641100 ) ) ;
#126 = COORDINATED_UNIVERSAL_TIME_OFFSET ( 2, 0, .AHEAD. ) ;
#127 = DATE_TIME_ROLE ( 'classification_date' ) ;
#128 = PERSON_AND_ORGANIZATION_ROLE ( 'design_owner' ) ;
#129 = EDGE_CURVE ( 'NONE', #80, #97, #71, .T. ) ;
#130 = MECHANICAL_CONTEXT ( 'NONE', #112, 'mechanical' ) ;
#131 = ORIENTED_EDGE ( 'NONE', *, *, #227, .F. ) ;
#132 = FACE_OUTER_BOUND ( 'NONE', #17, .T. ) ;
#133 = PRODUCT_DEFINITION ( 'UNKNOWN', '', #202, #147 ) ;
#134 = DIRECTION ( 'NONE',  ( 1.000000000000000000, 0.0000000000000000000, 0.0000000000000000000 ) ) ;
#135 = CARTESIAN_POINT ( 'NONE',  ( -6.245004513516504300E-014, 4.295618278464559100, 0.1936956973377558500 ) ) ;
#136 = CARTESIAN_POINT ( 'NONE',  ( -6.418476861114186200E-014, 12.85198963798316500, -0.5795149693787313700 ) ) ;
#137 = DIRECTION ( 'NONE',  ( 1.000000000000000000, 0.0000000000000000000, 0.0000000000000000000 ) ) ;
#138 = CC_DESIGN_PERSON_AND_ORGANIZATION_ASSIGNMENT ( #179, #24, ( #133 ) ) ;
#139 = CARTESIAN_POINT ( 'NONE',  ( 8.492703717222186200, 12.85198963798316600, -0.7697569157785273400 ) ) ;
#140 = VERTEX_POINT ( 'NONE', #161 ) ;
#141 = PERSON_AND_ORGANIZATION ( #54, #119 ) ;
#142 = CARTESIAN_POINT ( 'NONE',  ( 4.271580370812696300, 4.295618278464559100, 0.1936956973377406400 ) ) ;
#143 = APPLICATION_CONTEXT ( 'configuration controlled 3d designs of mechanical parts and assemblies' ) ;
#144 = MANIFOLD_SOLID_BREP ( 'Imported1', #92 ) ;
#145 = VERTEX_POINT ( 'NONE', #124 ) ;
#146 = PERSON_AND_ORGANIZATION_ROLE ( 'design_supplier' ) ;
#147 = DESIGN_CONTEXT ( 'detailed design', #143, 'design' ) ;
#148 = APPROVAL ( #223, 'UNSPECIFIED' ) ;
#149 = APPROVAL_ROLE ( '' ) ;
#150 = CALENDAR_DATE ( 2019, 17, 1 ) ;
#151 = CALENDAR_DATE ( 2019, 17, 1 ) ;
#152 = CC_DESIGN_PERSON_AND_ORGANIZATION_ASSIGNMENT ( #110, #128, ( #20 ) ) ;
#153 = VECTOR ( 'NONE', #216, 1000.000000000000000 ) ;
#154 = SECURITY_CLASSIFICATION ( '', '', #58 ) ;
#155 = SHAPE_DEFINITION_REPRESENTATION ( #170, #55 ) ;
#156 = CARTESIAN_POINT ( 'NONE',  ( -4.271580370812765500, -4.295618278464515600, 0.1936956973377546300 ) ) ;
#157 = CALENDAR_DATE ( 2019, 17, 1 ) ;
#158 = CARTESIAN_POINT ( 'NONE',  ( 12.72414873446164500, -12.85198963798312200, -1.149859155281942400 ) ) ;
#159 = CARTESIAN_POINT ( 'NONE',  ( 4.271580370812696300, -4.295618278464515600, 0.1936956973377415000 ) ) ;
#160 = CC_DESIGN_DATE_AND_TIME_ASSIGNMENT ( #76, #127, ( #154 ) ) ;
#161 = CARTESIAN_POINT ( 'NONE',  ( -12.69999999999999900, 3.997792089092478900E-015, 3.400000000000000400 ) ) ;
#162 = CALENDAR_DATE ( 2019, 17, 1 ) ;
#163 = LOCAL_TIME ( 9, 9, 30.00000000000000000, #11 ) ;
#164 = CC_DESIGN_PERSON_AND_ORGANIZATION_ASSIGNMENT ( #98, #5, ( #154 ) ) ;
#165 = ORIENTED_EDGE ( 'NONE', *, *, #9, .T. ) ;
#166 = LOCAL_TIME ( 9, 9, 30.00000000000000000, #22 ) ;
#167 = ORIENTED_EDGE ( 'NONE', *, *, #225, .T. ) ;
#168 = DATE_AND_TIME ( #162, #200 ) ;
#169 = APPROVAL ( #40, 'UNSPECIFIED' ) ;
#170 = PRODUCT_DEFINITION_SHAPE ( 'NONE', 'NONE',  #133 ) ;
#171 = PERSON_AND_ORGANIZATION ( #54, #119 ) ;
#172 = CARTESIAN_POINT ( 'NONE',  ( -4.248482628703633200, 12.85198963798316600, -0.5795149693787334800 ) ) ;
#173 = CARTESIAN_POINT ( 'NONE',  ( 4.248482628703563100, 12.85198963798316600, -0.5795149693787463600 ) ) ;
#174 = CARTESIAN_POINT ( 'NONE',  ( -12.69999999999999900, 3.997792089092478900E-015, -0.5658620443038641100 ) ) ;
#175 = EDGE_LOOP ( 'NONE', ( #123, #47 ) ) ;
#176 = DIRECTION ( 'NONE',  ( 1.000000000000000000, 0.0000000000000000000, 0.0000000000000000000 ) ) ;
#177 = EDGE_CURVE ( 'NONE', #97, #140, #206, .T. ) ;
#178 = ORIENTED_EDGE ( 'NONE', *, *, #177, .F. ) ;
#179 = PERSON_AND_ORGANIZATION ( #54, #119 ) ;
#180 =( LENGTH_UNIT ( ) NAMED_UNIT ( * ) SI_UNIT ( .MILLI., .METRE. ) );
#181 = DIRECTION ( 'NONE',  ( 0.0000000000000000000, 0.0000000000000000000, 1.000000000000000000 ) ) ;
#182 = FACE_OUTER_BOUND ( 'NONE', #41, .T. ) ;
#183 = APPLICATION_PROTOCOL_DEFINITION ( 'international standard', 'config_control_design', 1994, #112 ) ;
#184 = ORIENTED_EDGE ( 'NONE', *, *, #122, .F. ) ;
#185 = LOCAL_TIME ( 9, 9, 30.00000000000000000, #126 ) ;
#186 = CC_DESIGN_DATE_AND_TIME_ASSIGNMENT ( #198, #23, ( #133 ) ) ;
#187 = FACE_OUTER_BOUND ( 'NONE', #175, .T. ) ;
#188 = CARTESIAN_POINT ( 'NONE',  ( 4.996003610813200500E-016, 2.442490654175340100E-015, 3.400000000000000400 ) ) ;
#189 =( BOUNDED_SURFACE ( )  B_SPLINE_SURFACE ( 3, 3, ( 
 ( #118, #62, #172, #136 ),
 ( #209, #229, #66, #135 ),
 ( #12, #213, #156, #99 ),
 ( #232, #120, #87, #105 ) ),
 .UNSPECIFIED., .F., .F., .F. ) 
 B_SPLINE_SURFACE_WITH_KNOTS ( ( 4, 4 ),
 ( 4, 4 ),
 ( 0.0000000000000000000, 1.000000000000000000 ),
 ( 0.0000000000000000000, 1.000000000000000000 ),
 .UNSPECIFIED. ) 
 GEOMETRIC_REPRESENTATION_ITEM ( )  RATIONAL_B_SPLINE_SURFACE ( (
 ( 1.000000000000000000, 0.9993312843576704900, 0.9993312843576704900, 1.000000000000000000),
 ( 0.9972945146154121900, 0.9966276081734794000, 0.9966276081734794000, 0.9972945146154121900),
 ( 0.9972945146154121900, 0.9966276081734794000, 0.9966276081734794000, 0.9972945146154121900),
 ( 1.000000000000000000, 0.9993312843576704900, 0.9993312843576704900, 1.000000000000000000) ) ) 
 REPRESENTATION_ITEM ( '' )  SURFACE ( )  );
#190 = CYLINDRICAL_SURFACE ( 'NONE', #44, 12.69999999999999900 ) ;
#191 = CARTESIAN_POINT ( 'NONE',  ( 4.996003610813200500E-016, 2.442490654175340100E-015, -0.5658620443038641100 ) ) ;
#192 = EDGE_CURVE ( 'NONE', #140, #95, #113, .T. ) ;
#193 = CARTESIAN_POINT ( 'NONE',  ( 4.996003610813200500E-016, 2.442490654175340100E-015, -0.5658620443038641100 ) ) ;
#194 = DIRECTION ( 'NONE',  ( 0.0000000000000000000, 0.0000000000000000000, 1.000000000000000000 ) ) ;
#195 = CC_DESIGN_APPROVAL ( #169, ( #154 ) ) ;
#196 = DIRECTION ( 'NONE',  ( 1.000000000000000000, 0.0000000000000000000, 0.0000000000000000000 ) ) ;
#197 = ADVANCED_FACE ( 'NONE', ( #228 ), #190, .T. ) ;
#198 = DATE_AND_TIME ( #150, #163 ) ;
#199 = CARTESIAN_POINT ( 'NONE',  ( 4.996003610813200500E-016, 2.442490654175340100E-015, -0.5658620443038641100 ) ) ;
#200 = LOCAL_TIME ( 9, 9, 30.00000000000000000, #13 ) ;
#201 = DATE_AND_TIME ( #111, #185 ) ;
#202 = PRODUCT_DEFINITION_FORMATION_WITH_SPECIFIED_SOURCE ( 'ANY', '', #20, .NOT_KNOWN. ) ;
#203 = CARTESIAN_POINT ( 'NONE',  ( 0.0000000000000000000, 0.0000000000000000000, 0.0000000000000000000 ) ) ;
#204 =( BOUNDED_SURFACE ( )  B_SPLINE_SURFACE ( 3, 3, ( 
 ( #15, #173, #139, #219 ),
 ( #69, #142, #1, #121 ),
 ( #33, #159, #16, #214 ),
 ( #38, #72, #107, #158 ) ),
 .UNSPECIFIED., .F., .F., .F. ) 
 B_SPLINE_SURFACE_WITH_KNOTS ( ( 4, 4 ),
 ( 4, 4 ),
 ( 0.0000000000000000000, 1.000000000000000000 ),
 ( 0.0000000000000000000, 1.000000000000000000 ),
 .UNSPECIFIED. ) 
 GEOMETRIC_REPRESENTATION_ITEM ( )  RATIONAL_B_SPLINE_SURFACE ( (
 ( 1.000000000000000000, 0.9993312843576704900, 0.9993312843576704900, 1.000000000000000000),
 ( 0.9972945146154121900, 0.9966276081734794000, 0.9966276081734794000, 0.9972945146154121900),
 ( 0.9972945146154121900, 0.9966276081734794000, 0.9966276081734794000, 0.9972945146154121900),
 ( 1.000000000000000000, 0.9993312843576704900, 0.9993312843576704900, 1.000000000000000000) ) ) 
 REPRESENTATION_ITEM ( '' )  SURFACE ( )  );
#205 =( NAMED_UNIT ( * ) PLANE_ANGLE_UNIT ( ) SI_UNIT ( $, .RADIAN. ) );
#206 = LINE ( 'NONE', #174, #153 ) ;
#207 = AXIS2_PLACEMENT_3D ( 'NONE', #125, #74, #196 ) ;
#208 = APPROVAL_DATE_TIME ( #201, #148 ) ;
#209 = CARTESIAN_POINT ( 'NONE',  ( -12.79332616360807500, 4.295618278464559100, -0.3797492810296582700 ) ) ;
#210 = DIRECTION ( 'NONE',  ( 1.000000000000000000, 0.0000000000000000000, -0.0000000000000000000 ) ) ;
#211 = DIRECTION ( 'NONE',  ( 0.0000000000000000000, 0.0000000000000000000, 1.000000000000000000 ) ) ;
#212 = APPROVAL_PERSON_ORGANIZATION ( #26, #60, #149 ) ;
#213 = CARTESIAN_POINT ( 'NONE',  ( -8.538876032708325100, -4.295618278464515600, 0.002419461804578117600 ) ) ;
#214 = CARTESIAN_POINT ( 'NONE',  ( 12.79332616360804800, -4.295618278464517400, -0.3797492810296703700 ) ) ;
#215 = CC_DESIGN_PERSON_AND_ORGANIZATION_ASSIGNMENT ( #171, #108, ( #202 ) ) ;
#216 = DIRECTION ( 'NONE',  ( 0.0000000000000000000, 0.0000000000000000000, 1.000000000000000000 ) ) ;
#217 = VERTEX_POINT ( 'NONE', #50 ) ;
#218 = CARTESIAN_POINT ( 'NONE',  ( 4.996003610813200500E-016, 2.442490654175340100E-015, 3.400000000000000400 ) ) ;
#219 = CARTESIAN_POINT ( 'NONE',  ( 12.72414873446164500, 12.85198963798316500, -1.149859155281942400 ) ) ;
#220 = APPLICATION_PROTOCOL_DEFINITION ( 'international standard', 'config_control_design', 1994, #143 ) ;
#221 = EDGE_LOOP ( 'NONE', ( #178, #165, #27, #167, #235 ) ) ;
#222 = CARTESIAN_POINT ( 'NONE',  ( 4.996003610813200500E-016, 2.442490654175340100E-015, -0.5658620443038641100 ) ) ;
#223 = APPROVAL_STATUS ( 'not_yet_approved' ) ;
#224 = ORIENTED_EDGE ( 'NONE', *, *, #227, .T. ) ;
#225 = EDGE_CURVE ( 'NONE', #217, #95, #10, .T. ) ;
#226 = ORIENTED_EDGE ( 'NONE', *, *, #129, .T. ) ;
#227 = EDGE_CURVE ( 'NONE', #80, #145, #61, .T. ) ;
#228 = FACE_OUTER_BOUND ( 'NONE', #79, .T. ) ;
#229 = CARTESIAN_POINT ( 'NONE',  ( -8.538876032708325100, 4.295618278464559100, 0.002419461804577358700 ) ) ;
#230 = EDGE_CURVE ( 'NONE', #145, #217, #45, .T. ) ;
#231 = ORIENTED_EDGE ( 'NONE', *, *, #9, .F. ) ;
#232 = CARTESIAN_POINT ( 'NONE',  ( -12.72414873446167000, -12.85198963798312200, -1.149859155281929300 ) ) ;
#233 = AXIS2_PLACEMENT_3D ( 'NONE', #234, #64, #210 ) ;
#234 = CARTESIAN_POINT ( 'NONE',  ( 0.0000000000000000000, 26.11199999999999800, 3.399999999999999900 ) ) ;
#235 = ORIENTED_EDGE ( 'NONE', *, *, #3, .T. ) ;
ENDSEC;
END-ISO-10303-21;
