ISO-10303-21;
HEADER;
FILE_DESCRIPTION (( 'STEP AP203' ),
    '1' );
FILE_NAME ('112-1221E UVFS pl-cv 25.4 F-250.STEP',
    '2019-01-16T15:23:47',
    ( '' ),
    ( '' ),
    'SwSTEP 2.0',
    'SolidWorks 2017',
    '' );
FILE_SCHEMA (( 'CONFIG_CONTROL_DESIGN' ));
ENDSEC;

DATA;
#1 = PERSON_AND_ORGANIZATION ( #35, #2 ) ;
#2 = ORGANIZATION ( 'UNSPECIFIED', 'UNSPECIFIED', '' ) ;
#3 = AXIS2_PLACEMENT_3D ( 'NONE', #9, #142, #60 ) ;
#4 = ORIENTED_EDGE ( 'NONE', *, *, #227, .F. ) ;
#5 = CYLINDRICAL_SURFACE ( 'NONE', #113, 12.69999999999999900 ) ;
#6 = ADVANCED_BREP_SHAPE_REPRESENTATION ( '112-1221E UVFS pl-cv 25.4 F-250', ( #183, #203 ), #127 ) ;
#7 = EDGE_CURVE ( 'NONE', #11, #58, #188, .T. ) ;
#8 = CARTESIAN_POINT ( 'NONE',  ( -8.548361488165378200, -4.300705771488303200, 0.002978082651714192100 ) ) ;
#9 = CARTESIAN_POINT ( 'NONE',  ( 4.996003610813200500E-016, 2.442490654175340100E-015, 3.300000000000000300 ) ) ;
#10 = SECURITY_CLASSIFICATION ( '', '', #52 ) ;
#11 = VERTEX_POINT ( 'NONE', #77 ) ;
#12 = CARTESIAN_POINT ( 'NONE',  ( -2.842170943040400100E-014, -2.131628207280299900E-014, -119.0000000000000100 ) ) ;
#13 = EDGE_CURVE ( 'NONE', #101, #58, #198, .T. ) ;
#14 = CIRCLE ( 'NONE', #50, 12.69999999999999900 ) ;
#15 = CARTESIAN_POINT ( 'NONE',  ( 4.243949174582165400, 12.85180825206469300, -0.6960227859935387300 ) ) ;
#16 = VERTEX_POINT ( 'NONE', #119 ) ;
#17 = PLANE ( 'NONE',  #74 ) ;
#18 = CARTESIAN_POINT ( 'NONE',  ( 4.996003610813200500E-016, 2.442490654175340100E-015, -0.6796298180233051300 ) ) ;
#19 = CARTESIAN_POINT ( 'NONE',  ( 4.996003610813200500E-016, 2.442490654175340100E-015, -0.6796298180233051300 ) ) ;
#20 = COORDINATED_UNIVERSAL_TIME_OFFSET ( 2, 0, .AHEAD. ) ;
#21 = PERSON_AND_ORGANIZATION ( #35, #2 ) ;
#22 = DATE_TIME_ROLE ( 'creation_date' ) ;
#23 = EDGE_LOOP ( 'NONE', ( #125, #180, #87, #229, #154 ) ) ;
#24 = ORIENTED_EDGE ( 'NONE', *, *, #36, .F. ) ;
#25 = CC_DESIGN_PERSON_AND_ORGANIZATION_ASSIGNMENT ( #226, #223, ( #95 ) ) ;
#26 = COORDINATED_UNIVERSAL_TIME_OFFSET ( 2, 0, .AHEAD. ) ;
#27 = EDGE_LOOP ( 'NONE', ( #24, #112, #173 ) ) ;
#28 = CARTESIAN_POINT ( 'NONE',  ( -5.030698080332740600E-014, -4.300705771488300600, 0.2329158009596512500 ) ) ;
#29 = CALENDAR_DATE ( 2019, 16, 1 ) ;
#30 = CARTESIAN_POINT ( 'NONE',  ( 8.548361488165294700, -4.300705771488298800, 0.002978082651710885300 ) ) ;
#31 = CALENDAR_DATE ( 2019, 16, 1 ) ;
#32 =( NAMED_UNIT ( * ) PLANE_ANGLE_UNIT ( ) SI_UNIT ( $, .RADIAN. ) );
#33 = PERSON_AND_ORGANIZATION_ROLE ( 'classification_officer' ) ;
#34 = PERSON_AND_ORGANIZATION_ROLE ( 'creator' ) ;
#35 = PERSON ( 'UNSPECIFIED', 'UNSPECIFIED', 'UNSPECIFIED', ('UNSPECIFIED'), ('UNSPECIFIED'), ('UNSPECIFIED') ) ;
#36 = EDGE_CURVE ( 'NONE', #16, #152, #145, .T. ) ;
#37 = ORIENTED_EDGE ( 'NONE', *, *, #7, .F. ) ;
#38 = DATE_AND_TIME ( #31, #114 ) ;
#39 = CARTESIAN_POINT ( 'NONE',  ( -12.69999999999999900, 3.997792089092478900E-015, -0.6796298180233051300 ) ) ;
#40 = APPROVAL_PERSON_ORGANIZATION ( #94, #110, #170 ) ;
#41 =( BOUNDED_SURFACE ( )  B_SPLINE_SURFACE ( 3, 3, ( 
 ( #59, #15, #108, #107 ),
 ( #149, #44, #181, #130 ),
 ( #234, #201, #30, #47 ),
 ( #150, #43, #187, #124 ) ),
 .UNSPECIFIED., .F., .F., .T. ) 
 B_SPLINE_SURFACE_WITH_KNOTS ( ( 4, 4 ),
 ( 4, 4 ),
 ( 0.0000000000000000000, 1.000000000000000000 ),
 ( 0.0000000000000000000, 1.000000000000000000 ),
 .UNSPECIFIED. ) 
 GEOMETRIC_REPRESENTATION_ITEM ( )  RATIONAL_B_SPLINE_SURFACE ( (
 ( 1.000000000000000000, 0.9990359949625086100, 0.9990359949625086100, 1.000000000000000000),
 ( 0.9961007126835095300, 0.9951404665786338600, 0.9951404665786338600, 0.9961007126835095300),
 ( 0.9961007126835095300, 0.9951404665786338600, 0.9951404665786338600, 0.9961007126835095300),
 ( 1.000000000000000000, 0.9990359949625086100, 0.9990359949625086100, 1.000000000000000000) ) ) 
 REPRESENTATION_ITEM ( '' )  SURFACE ( )  );
#42 =( BOUNDED_SURFACE ( )  B_SPLINE_SURFACE ( 3, 3, ( 
 ( #196, #80, #143, #61 ),
 ( #231, #123, #146, #141 ),
 ( #102, #8, #213, #28 ),
 ( #178, #140, #121, #62 ) ),
 .UNSPECIFIED., .F., .F., .T. ) 
 B_SPLINE_SURFACE_WITH_KNOTS ( ( 4, 4 ),
 ( 4, 4 ),
 ( 0.0000000000000000000, 1.000000000000000000 ),
 ( 0.0000000000000000000, 1.000000000000000000 ),
 .UNSPECIFIED. ) 
 GEOMETRIC_REPRESENTATION_ITEM ( )  RATIONAL_B_SPLINE_SURFACE ( (
 ( 1.000000000000000000, 0.9990359949625086100, 0.9990359949625086100, 1.000000000000000000),
 ( 0.9961007126835095300, 0.9951404665786338600, 0.9951404665786338600, 0.9961007126835095300),
 ( 0.9961007126835095300, 0.9951404665786338600, 0.9951404665786338600, 0.9961007126835095300),
 ( 1.000000000000000000, 0.9990359949625086100, 0.9990359949625086100, 1.000000000000000000) ) ) 
 REPRESENTATION_ITEM ( '' )  SURFACE ( )  );
#43 = CARTESIAN_POINT ( 'NONE',  ( 4.243949174582171600, -12.85180825206471200, -0.6960227859935526100 ) ) ;
#44 = CARTESIAN_POINT ( 'NONE',  ( 4.277273228787092500, 4.300705771488276600, 0.2329158009596634400 ) ) ;
#45 = DATE_AND_TIME ( #148, #53 ) ;
#46 = CC_DESIGN_SECURITY_CLASSIFICATION ( #10, ( #81 ) ) ;
#47 = CARTESIAN_POINT ( 'NONE',  ( 12.80091272634174800, -4.300705771488297900, -0.4562323706078856800 ) ) ;
#48 = FACE_OUTER_BOUND ( 'NONE', #210, .T. ) ;
#49 = MECHANICAL_CONTEXT ( 'NONE', #111, 'mechanical' ) ;
#50 = AXIS2_PLACEMENT_3D ( 'NONE', #184, #129, #218 ) ;
#51 = PERSON_AND_ORGANIZATION_ROLE ( 'design_supplier' ) ;
#52 = SECURITY_CLASSIFICATION_LEVEL ( 'unclassified' ) ;
#53 = LOCAL_TIME ( 17, 23, 47.00000000000000000, #65 ) ;
#54 = PRODUCT_DEFINITION ( 'UNKNOWN', '', #81, #193 ) ;
#55 = CYLINDRICAL_SURFACE ( 'NONE', #91, 12.69999999999999900 ) ;
#56 = ORIENTED_EDGE ( 'NONE', *, *, #13, .F. ) ;
#57 = AXIS2_PLACEMENT_3D ( 'NONE', #19, #205, #204 ) ;
#58 = VERTEX_POINT ( 'NONE', #177 ) ;
#59 = CARTESIAN_POINT ( 'NONE',  ( -2.732879881252085400E-014, 12.85180825206469100, -0.6960227859935386200 ) ) ;
#60 = DIRECTION ( 'NONE',  ( 1.000000000000000000, 0.0000000000000000000, 0.0000000000000000000 ) ) ;
#61 = CARTESIAN_POINT ( 'NONE',  ( -5.551115123125782700E-014, 12.85180825206469100, -0.6960227859935358400 ) ) ;
#62 = CARTESIAN_POINT ( 'NONE',  ( -4.857225732735059900E-014, -12.85180825206471400, -0.6960227859935495000 ) ) ;
#63 = DIRECTION ( 'NONE',  ( 0.0000000000000000000, 0.0000000000000000000, 1.000000000000000000 ) ) ;
#64 = DATE_AND_TIME ( #89, #116 ) ;
#65 = COORDINATED_UNIVERSAL_TIME_OFFSET ( 2, 0, .AHEAD. ) ;
#66 = DIRECTION ( 'NONE',  ( 0.0000000000000000000, 0.0000000000000000000, 1.000000000000000000 ) ) ;
#67 = CARTESIAN_POINT ( 'NONE',  ( 4.996003610813200500E-016, 2.442490654175340100E-015, -0.6796298180233051300 ) ) ;
#68 = DIRECTION ( 'NONE',  ( 0.0000000000000000000, 0.0000000000000000000, 1.000000000000000000 ) ) ;
#69 = LOCAL_TIME ( 17, 23, 47.00000000000000000, #192 ) ;
#70 = CC_DESIGN_DATE_AND_TIME_ASSIGNMENT ( #45, #22, ( #54 ) ) ;
#71 = CC_DESIGN_PERSON_AND_ORGANIZATION_ASSIGNMENT ( #21, #33, ( #10 ) ) ;
#72 = APPLICATION_PROTOCOL_DEFINITION ( 'international standard', 'config_control_design', 1994, #133 ) ;
#73 = CIRCLE ( 'NONE', #171, 12.69999999999999900 ) ;
#74 = AXIS2_PLACEMENT_3D ( 'NONE', #147, #68, #163 ) ;
#75 = PRODUCT_RELATED_PRODUCT_CATEGORY ( 'detail', '', ( #95 ) ) ;
#76 = COORDINATED_UNIVERSAL_TIME_OFFSET ( 2, 0, .AHEAD. ) ;
#77 = CARTESIAN_POINT ( 'NONE',  ( -12.69999999999999900, 3.997792089092478900E-015, 3.300000000000000300 ) ) ;
#78 = ADVANCED_FACE ( 'NONE', ( #217 ), #42, .F. ) ;
#79 = APPROVAL ( #153, 'UNSPECIFIED' ) ;
#80 = CARTESIAN_POINT ( 'NONE',  ( -8.481761566589721500, 12.85180825206468900, -0.9241690692963201400 ) ) ;
#81 = PRODUCT_DEFINITION_FORMATION_WITH_SPECIFIED_SOURCE ( 'ANY', '', #95, .NOT_KNOWN. ) ;
#82 = LINE ( 'NONE', #233, #185 ) ;
#83 = CARTESIAN_POINT ( 'NONE',  ( 4.996003610813200500E-016, 2.442490654175340100E-015, -0.6796298180233051300 ) ) ;
#84 = DIRECTION ( 'NONE',  ( 1.000000000000000000, 0.0000000000000000000, 0.0000000000000000000 ) ) ;
#85 = DIRECTION ( 'NONE',  ( 0.0000000000000000000, 0.0000000000000000000, 1.000000000000000000 ) ) ;
#86 = FACE_OUTER_BOUND ( 'NONE', #23, .T. ) ;
#87 = ORIENTED_EDGE ( 'NONE', *, *, #211, .T. ) ;
#88 = DIRECTION ( 'NONE',  ( 0.0000000000000000000, 0.0000000000000000000, 1.000000000000000000 ) ) ;
#89 = CALENDAR_DATE ( 2019, 16, 1 ) ;
#90 = APPROVAL_STATUS ( 'not_yet_approved' ) ;
#91 = AXIS2_PLACEMENT_3D ( 'NONE', #83, #66, #84 ) ;
#92 =( LENGTH_UNIT ( ) NAMED_UNIT ( * ) SI_UNIT ( .MILLI., .METRE. ) );
#93 = DIRECTION ( 'NONE',  ( 0.0000000000000000000, 0.0000000000000000000, 1.000000000000000000 ) ) ;
#94 = PERSON_AND_ORGANIZATION ( #35, #2 ) ;
#95 = PRODUCT ( '112-1221E UVFS pl-cv 25.4 F-250', '112-1221E UVFS pl-cv 25.4 F-250', '', ( #49 ) ) ;
#96 = APPROVAL_DATE_TIME ( #167, #110 ) ;
#97 = LOCAL_TIME ( 17, 23, 47.00000000000000000, #76 ) ;
#98 = ORIENTED_EDGE ( 'NONE', *, *, #174, .T. ) ;
#99 = PERSON_AND_ORGANIZATION ( #35, #2 ) ;
#100 = CC_DESIGN_PERSON_AND_ORGANIZATION_ASSIGNMENT ( #179, #34, ( #81 ) ) ;
#101 = VERTEX_POINT ( 'NONE', #176 ) ;
#102 = CARTESIAN_POINT ( 'NONE',  ( -12.80091272634183500, -4.300705771488304100, -0.4562323706078839100 ) ) ;
#103 = EDGE_CURVE ( 'NONE', #101, #16, #175, .T. ) ;
#104 = DIRECTION ( 'NONE',  ( 0.0000000000000000000, 0.0000000000000000000, 1.000000000000000000 ) ) ;
#105 = PERSON_AND_ORGANIZATION ( #35, #2 ) ;
#106 = ORIENTED_EDGE ( 'NONE', *, *, #227, .T. ) ;
#107 = CARTESIAN_POINT ( 'NONE',  ( 12.70118135854084700, 12.85180825206469500, -1.379801833402723600 ) ) ;
#108 = CARTESIAN_POINT ( 'NONE',  ( 8.481761566589630900, 12.85180825206469500, -0.9241690692963234800 ) ) ;
#109 = CIRCLE ( 'NONE', #191, 12.69999999999999900 ) ;
#110 = APPROVAL ( #90, 'UNSPECIFIED' ) ;
#111 = APPLICATION_CONTEXT ( 'configuration controlled 3d designs of mechanical parts and assemblies' ) ;
#112 = ORIENTED_EDGE ( 'NONE', *, *, #103, .F. ) ;
#113 = AXIS2_PLACEMENT_3D ( 'NONE', #18, #88, #235 ) ;
#114 = LOCAL_TIME ( 17, 23, 47.00000000000000000, #26 ) ;
#115 = CC_DESIGN_APPROVAL ( #212, ( #10 ) ) ;
#116 = LOCAL_TIME ( 17, 23, 47.00000000000000000, #20 ) ;
#117 = PERSON_AND_ORGANIZATION ( #35, #2 ) ;
#118 = ORIENTED_EDGE ( 'NONE', *, *, #103, .T. ) ;
#119 = CARTESIAN_POINT ( 'NONE',  ( -2.729114249765225800E-014, 12.69999999999991600, -0.6796298180232970300 ) ) ;
#120 = CC_DESIGN_APPROVAL ( #79, ( #54 ) ) ;
#121 = CARTESIAN_POINT ( 'NONE',  ( -4.243949174582246200, -12.85180825206471600, -0.6960227859935503900 ) ) ;
#122 = DIRECTION ( 'NONE',  ( 1.000000000000000000, 2.441897141834629800E-016, -3.576540790375520200E-017 ) ) ;
#123 = CARTESIAN_POINT ( 'NONE',  ( -8.548361488165381800, 4.300705771488273900, 0.002978082651729642400 ) ) ;
#124 = CARTESIAN_POINT ( 'NONE',  ( 12.70118135854085000, -12.85180825206471100, -1.379801833402737300 ) ) ;
#125 = ORIENTED_EDGE ( 'NONE', *, *, #174, .F. ) ;
#126 = DIRECTION ( 'NONE',  ( 0.0000000000000000000, 0.0000000000000000000, 1.000000000000000000 ) ) ;
#127 =( GEOMETRIC_REPRESENTATION_CONTEXT ( 3 ) GLOBAL_UNCERTAINTY_ASSIGNED_CONTEXT ( ( #137 ) ) GLOBAL_UNIT_ASSIGNED_CONTEXT ( ( #92, #32, #207 ) ) REPRESENTATION_CONTEXT ( 'NONE', 'WORKASPACE' ) );
#128 = CARTESIAN_POINT ( 'NONE',  ( 4.996003610813200500E-016, 2.442490654175340100E-015, -0.6796298180233051300 ) ) ;
#129 = DIRECTION ( 'NONE',  ( -0.0000000000000000000, -0.0000000000000000000, -1.000000000000000000 ) ) ;
#130 = CARTESIAN_POINT ( 'NONE',  ( 12.80091272634174800, 4.300705771488279300, -0.4562323706078704700 ) ) ;
#131 = CC_DESIGN_PERSON_AND_ORGANIZATION_ASSIGNMENT ( #99, #51, ( #81 ) ) ;
#132 = CARTESIAN_POINT ( 'NONE',  ( 0.0000000000000000000, 0.0000000000000000000, 0.0000000000000000000 ) ) ;
#133 = APPLICATION_CONTEXT ( 'configuration controlled 3d designs of mechanical parts and assemblies' ) ;
#134 = APPROVAL_PERSON_ORGANIZATION ( #105, #79, #206 ) ;
#135 = CC_DESIGN_PERSON_AND_ORGANIZATION_ASSIGNMENT ( #117, #221, ( #54 ) ) ;
#136 = VERTEX_POINT ( 'NONE', #39 ) ;
#137 = UNCERTAINTY_MEASURE_WITH_UNIT (LENGTH_MEASURE( 1.000000000000000100E-005 ), #92, 'distance_accuracy_value', 'NONE');
#138 = ORIENTED_EDGE ( 'NONE', *, *, #36, .T. ) ;
#139 = ORIENTED_EDGE ( 'NONE', *, *, #151, .F. ) ;
#140 = CARTESIAN_POINT ( 'NONE',  ( -8.481761566589714400, -12.85180825206471600, -0.9241690692963341300 ) ) ;
#141 = CARTESIAN_POINT ( 'NONE',  ( -5.204170427930421900E-014, 4.300705771488276600, 0.2329158009596664400 ) ) ;
#142 = DIRECTION ( 'NONE',  ( -0.0000000000000000000, -0.0000000000000000000, -1.000000000000000000 ) ) ;
#143 = CARTESIAN_POINT ( 'NONE',  ( -4.243949174582254200, 12.85180825206468900, -0.6960227859935367300 ) ) ;
#144 = APPROVAL_PERSON_ORGANIZATION ( #1, #212, #224 ) ;
#145 = CIRCLE ( 'NONE', #220, 119.0000000000000000 ) ;
#146 = CARTESIAN_POINT ( 'NONE',  ( -4.277273228787174200, 4.300705771488275700, 0.2329158009596655500 ) ) ;
#147 = CARTESIAN_POINT ( 'NONE',  ( 0.0000000000000000000, 26.11199999999999800, 3.299999999999999800 ) ) ;
#148 = CALENDAR_DATE ( 2019, 16, 1 ) ;
#149 = CARTESIAN_POINT ( 'NONE',  ( -2.520748367435547900E-014, 4.300705771488276600, 0.2329158009596635800 ) ) ;
#150 = CARTESIAN_POINT ( 'NONE',  ( -2.105224004489615300E-014, -12.85180825206471400, -0.6960227859935525000 ) ) ;
#151 = EDGE_CURVE ( 'NONE', #58, #11, #14, .T. ) ;
#152 = VERTEX_POINT ( 'NONE', #214 ) ;
#153 = APPROVAL_STATUS ( 'not_yet_approved' ) ;
#154 = ORIENTED_EDGE ( 'NONE', *, *, #151, .T. ) ;
#155 = AXIS2_PLACEMENT_3D ( 'NONE', #199, #230, #197 ) ;
#156 = EDGE_LOOP ( 'NONE', ( #118, #106, #98, #186, #56 ) ) ;
#157 = PRODUCT_DEFINITION_SHAPE ( 'NONE', 'NONE',  #54 ) ;
#158 = SHAPE_DEFINITION_REPRESENTATION ( #157, #6 ) ;
#159 = EDGE_LOOP ( 'NONE', ( #4, #138, #202 ) ) ;
#160 = CC_DESIGN_APPROVAL ( #110, ( #81 ) ) ;
#161 = ADVANCED_FACE ( 'NONE', ( #194 ), #41, .F. ) ;
#162 = ADVANCED_FACE ( 'NONE', ( #86 ), #55, .T. ) ;
#163 = DIRECTION ( 'NONE',  ( 1.000000000000000000, 0.0000000000000000000, -0.0000000000000000000 ) ) ;
#164 = APPROVAL_DATE_TIME ( #64, #212 ) ;
#165 = CIRCLE ( 'NONE', #57, 12.69999999999999900 ) ;
#166 = DIRECTION ( 'NONE',  ( 1.000000000000000000, 0.0000000000000000000, 0.0000000000000000000 ) ) ;
#167 = DATE_AND_TIME ( #216, #69 ) ;
#168 = DIRECTION ( 'NONE',  ( 1.000000000000000000, 0.0000000000000000000, 0.0000000000000000000 ) ) ;
#169 = APPLICATION_PROTOCOL_DEFINITION ( 'international standard', 'config_control_design', 1994, #111 ) ;
#170 = APPROVAL_ROLE ( '' ) ;
#171 = AXIS2_PLACEMENT_3D ( 'NONE', #128, #126, #166 ) ;
#172 = DATE_AND_TIME ( #29, #97 ) ;
#173 = ORIENTED_EDGE ( 'NONE', *, *, #211, .F. ) ;
#174 = EDGE_CURVE ( 'NONE', #136, #11, #82, .T. ) ;
#175 = CIRCLE ( 'NONE', #155, 12.69999999999999900 ) ;
#176 = CARTESIAN_POINT ( 'NONE',  ( 12.69999999999999900, 2.442490654175340100E-015, -0.6796298180233051300 ) ) ;
#177 = CARTESIAN_POINT ( 'NONE',  ( 12.69999999999999900, 2.442490654175340100E-015, 3.300000000000000300 ) ) ;
#178 = CARTESIAN_POINT ( 'NONE',  ( -12.70118135854093400, -12.85180825206471800, -1.379801833402735800 ) ) ;
#179 = PERSON_AND_ORGANIZATION ( #35, #2 ) ;
#180 = ORIENTED_EDGE ( 'NONE', *, *, #182, .T. ) ;
#181 = CARTESIAN_POINT ( 'NONE',  ( 8.548361488165294700, 4.300705771488277500, 0.002978082651726118300 ) ) ;
#182 = EDGE_CURVE ( 'NONE', #136, #152, #73, .T. ) ;
#183 = MANIFOLD_SOLID_BREP ( 'Imported1', #219 ) ;
#184 = CARTESIAN_POINT ( 'NONE',  ( 4.996003610813200500E-016, 2.442490654175340100E-015, 3.300000000000000300 ) ) ;
#185 = VECTOR ( 'NONE', #85, 1000.000000000000000 ) ;
#186 = ORIENTED_EDGE ( 'NONE', *, *, #7, .T. ) ;
#187 = CARTESIAN_POINT ( 'NONE',  ( 8.481761566589634400, -12.85180825206471100, -0.9241690692963374600 ) ) ;
#188 = CIRCLE ( 'NONE', #3, 12.69999999999999900 ) ;
#189 = APPROVAL_STATUS ( 'not_yet_approved' ) ;
#190 = DIRECTION ( 'NONE',  ( 1.000000000000000000, 0.0000000000000000000, 0.0000000000000000000 ) ) ;
#191 = AXIS2_PLACEMENT_3D ( 'NONE', #67, #104, #168 ) ;
#192 = COORDINATED_UNIVERSAL_TIME_OFFSET ( 2, 0, .AHEAD. ) ;
#193 = DESIGN_CONTEXT ( 'detailed design', #133, 'design' ) ;
#194 = FACE_OUTER_BOUND ( 'NONE', #27, .T. ) ;
#195 = ADVANCED_FACE ( 'NONE', ( #48 ), #17, .T. ) ;
#196 = CARTESIAN_POINT ( 'NONE',  ( -12.70118135854094100, 12.85180825206468700, -1.379801833402721800 ) ) ;
#197 = DIRECTION ( 'NONE',  ( 1.000000000000000000, 0.0000000000000000000, 0.0000000000000000000 ) ) ;
#198 = LINE ( 'NONE', #215, #200 ) ;
#199 = CARTESIAN_POINT ( 'NONE',  ( 4.996003610813200500E-016, 2.442490654175340100E-015, -0.6796298180233051300 ) ) ;
#200 = VECTOR ( 'NONE', #63, 1000.000000000000000 ) ;
#201 = CARTESIAN_POINT ( 'NONE',  ( 4.277273228787094300, -4.300705771488299700, 0.2329158009596481400 ) ) ;
#202 = ORIENTED_EDGE ( 'NONE', *, *, #182, .F. ) ;
#203 = AXIS2_PLACEMENT_3D ( 'NONE', #132, #93, #190 ) ;
#204 = DIRECTION ( 'NONE',  ( 1.000000000000000000, 0.0000000000000000000, 0.0000000000000000000 ) ) ;
#205 = DIRECTION ( 'NONE',  ( 0.0000000000000000000, 0.0000000000000000000, 1.000000000000000000 ) ) ;
#206 = APPROVAL_ROLE ( '' ) ;
#207 =( NAMED_UNIT ( * ) SI_UNIT ( $, .STERADIAN. ) SOLID_ANGLE_UNIT ( ) );
#208 = DATE_TIME_ROLE ( 'classification_date' ) ;
#209 = FACE_OUTER_BOUND ( 'NONE', #156, .T. ) ;
#210 = EDGE_LOOP ( 'NONE', ( #139, #37 ) ) ;
#211 = EDGE_CURVE ( 'NONE', #152, #101, #165, .T. ) ;
#212 = APPROVAL ( #189, 'UNSPECIFIED' ) ;
#213 = CARTESIAN_POINT ( 'NONE',  ( -4.277273228787172400, -4.300705771488301500, 0.2329158009596504200 ) ) ;
#214 = CARTESIAN_POINT ( 'NONE',  ( -2.108872375739233300E-014, -12.69999999999993500, -0.6796298180232970300 ) ) ;
#215 = CARTESIAN_POINT ( 'NONE',  ( 12.69999999999999900, 2.442490654175340100E-015, -0.6796298180233051300 ) ) ;
#216 = CALENDAR_DATE ( 2019, 16, 1 ) ;
#217 = FACE_OUTER_BOUND ( 'NONE', #159, .T. ) ;
#218 = DIRECTION ( 'NONE',  ( 1.000000000000000000, 0.0000000000000000000, 0.0000000000000000000 ) ) ;
#219 = CLOSED_SHELL ( 'NONE', ( #78, #232, #161, #162, #195 ) ) ;
#220 = AXIS2_PLACEMENT_3D ( 'NONE', #12, #122, #228 ) ;
#221 = PERSON_AND_ORGANIZATION_ROLE ( 'creator' ) ;
#222 = APPROVAL_DATE_TIME ( #172, #79 ) ;
#223 = PERSON_AND_ORGANIZATION_ROLE ( 'design_owner' ) ;
#224 = APPROVAL_ROLE ( '' ) ;
#225 = CC_DESIGN_DATE_AND_TIME_ASSIGNMENT ( #38, #208, ( #10 ) ) ;
#226 = PERSON_AND_ORGANIZATION ( #35, #2 ) ;
#227 = EDGE_CURVE ( 'NONE', #16, #136, #109, .T. ) ;
#228 = DIRECTION ( 'NONE',  ( -2.441897141834630300E-016, 1.000000000000000000, -4.664802624475447800E-016 ) ) ;
#229 = ORIENTED_EDGE ( 'NONE', *, *, #13, .T. ) ;
#230 = DIRECTION ( 'NONE',  ( 0.0000000000000000000, 0.0000000000000000000, 1.000000000000000000 ) ) ;
#231 = CARTESIAN_POINT ( 'NONE',  ( -12.80091272634183900, 4.300705771488273000, -0.4562323706078685300 ) ) ;
#232 = ADVANCED_FACE ( 'NONE', ( #209 ), #5, .T. ) ;
#233 = CARTESIAN_POINT ( 'NONE',  ( -12.69999999999999900, 3.997792089092478900E-015, -0.6796298180233051300 ) ) ;
#234 = CARTESIAN_POINT ( 'NONE',  ( -2.310710744810168900E-014, -4.300705771488300600, 0.2329158009596483100 ) ) ;
#235 = DIRECTION ( 'NONE',  ( 1.000000000000000000, 0.0000000000000000000, 0.0000000000000000000 ) ) ;
ENDSEC;
END-ISO-10303-21;
