ISO-10303-21;
HEADER;
FILE_DESCRIPTION (( 'STEP AP203' ),
    '1' );
FILE_NAME ('112-1219E UVFS pl-cv 25.4 F-200.STEP',
    '2019-01-16T15:17:54',
    ( '' ),
    ( '' ),
    'SwSTEP 2.0',
    'SolidWorks 2017',
    '' );
FILE_SCHEMA (( 'CONFIG_CONTROL_DESIGN' ));
ENDSEC;

DATA;
#1 = CARTESIAN_POINT ( 'NONE',  ( -4.287812090952615800, -4.310121068828110000, 0.2922278843999880900 ) ) ;
#2 = CARTESIAN_POINT ( 'NONE',  ( 12.69999999999999900, 2.442490654175340100E-015, -0.8508239756196269700 ) ) ;
#3 = FACE_OUTER_BOUND ( 'NONE', #165, .T. ) ;
#4 =( BOUNDED_SURFACE ( )  B_SPLINE_SURFACE ( 3, 3, ( 
 ( #198, #89, #226, #228 ),
 ( #30, #70, #218, #231 ),
 ( #109, #17, #1, #34 ),
 ( #97, #206, #204, #35 ) ),
 .UNSPECIFIED., .F., .F., .T. ) 
 B_SPLINE_SURFACE_WITH_KNOTS ( ( 4, 4 ),
 ( 4, 4 ),
 ( 0.0000000000000000000, 1.000000000000000000 ),
 ( 0.0000000000000000000, 1.000000000000000000 ),
 .UNSPECIFIED. ) 
 GEOMETRIC_REPRESENTATION_ITEM ( )  RATIONAL_B_SPLINE_SURFACE ( (
 ( 1.000000000000000000, 0.9984910117659392400, 0.9984910117659392400, 1.000000000000000000),
 ( 0.9938988560025793200, 0.9923990743230249900, 0.9923990743230249900, 0.9938988560025793200),
 ( 0.9938988560025793200, 0.9923990743230249900, 0.9923990743230249900, 0.9938988560025793200),
 ( 1.000000000000000000, 0.9984910117659392400, 0.9984910117659392400, 1.000000000000000000) ) ) 
 REPRESENTATION_ITEM ( '' )  SURFACE ( )  );
#5 = CC_DESIGN_APPROVAL ( #222, ( #143 ) ) ;
#6 = ORIENTED_EDGE ( 'NONE', *, *, #171, .T. ) ;
#7 = COORDINATED_UNIVERSAL_TIME_OFFSET ( 2, 0, .AHEAD. ) ;
#8 = ORGANIZATION ( 'UNSPECIFIED', 'UNSPECIFIED', '' ) ;
#9 = CARTESIAN_POINT ( 'NONE',  ( 4.996003610813200500E-016, 2.442490654175340100E-015, -0.8508239756196269700 ) ) ;
#10 = AXIS2_PLACEMENT_3D ( 'NONE', #114, #40, #133 ) ;
#11 = DIRECTION ( 'NONE',  ( 0.0000000000000000000, 0.0000000000000000000, 1.000000000000000000 ) ) ;
#12 = LOCAL_TIME ( 17, 17, 54.00000000000000000, #23 ) ;
#13 = CARTESIAN_POINT ( 'NONE',  ( 8.461554903374503700, -12.85147319862263200, -1.156154320394217700 ) ) ;
#14 = CARTESIAN_POINT ( 'NONE',  ( 12.69999999999999900, 2.442490654175340100E-015, 3.100000000000001000 ) ) ;
#15 = PRODUCT_DEFINITION_FORMATION_WITH_SPECIFIED_SOURCE ( 'ANY', '', #37, .NOT_KNOWN. ) ;
#16 = SECURITY_CLASSIFICATION_LEVEL ( 'unclassified' ) ;
#17 = CARTESIAN_POINT ( 'NONE',  ( -8.565918794912507300, -4.310121068828110900, 0.003895512210568409800 ) ) ;
#18 = ADVANCED_FACE ( 'NONE', ( #219 ), #154, .T. ) ;
#19 = ORIENTED_EDGE ( 'NONE', *, *, #46, .T. ) ;
#20 = CARTESIAN_POINT ( 'NONE',  ( 4.996003610813200500E-016, 2.442490654175340100E-015, -0.8508239756196269700 ) ) ;
#21 = APPLICATION_CONTEXT ( 'configuration controlled 3d designs of mechanical parts and assemblies' ) ;
#22 = EDGE_CURVE ( 'NONE', #27, #189, #210, .T. ) ;
#23 = COORDINATED_UNIVERSAL_TIME_OFFSET ( 2, 0, .AHEAD. ) ;
#24 = LOCAL_TIME ( 17, 17, 54.00000000000000000, #62 ) ;
#25 = CC_DESIGN_APPROVAL ( #48, ( #15 ) ) ;
#26 = MANIFOLD_SOLID_BREP ( 'Imported1', #126 ) ;
#27 = VERTEX_POINT ( 'NONE', #66 ) ;
#28 = DIRECTION ( 'NONE',  ( 1.000000000000000000, 0.0000000000000000000, 0.0000000000000000000 ) ) ;
#29 = DIRECTION ( 'NONE',  ( 0.0000000000000000000, 0.0000000000000000000, 1.000000000000000000 ) ) ;
#30 = CARTESIAN_POINT ( 'NONE',  ( -12.81495327383872700, 4.310121068828122400, -0.5714639616968786300 ) ) ;
#31 = CIRCLE ( 'NONE', #77, 12.69999999999999900 ) ;
#32 = EDGE_CURVE ( 'NONE', #47, #78, #49, .T. ) ;
#33 = CARTESIAN_POINT ( 'NONE',  ( 12.69999999999999900, 2.442490654175340100E-015, -0.8508239756196269700 ) ) ;
#34 = CARTESIAN_POINT ( 'NONE',  ( -6.071532165918824800E-014, -4.310121068828109100, 0.2922278843999905300 ) ) ;
#35 = CARTESIAN_POINT ( 'NONE',  ( -5.724587470723463400E-014, -12.85147319862263000, -0.8713348799916325000 ) ) ;
#36 = VECTOR ( 'NONE', #90, 1000.000000000000000 ) ;
#37 = PRODUCT ( '112-1219E UVFS pl-cv 25.4 F-200', '112-1219E UVFS pl-cv 25.4 F-200', '', ( #95 ) ) ;
#38 = CC_DESIGN_PERSON_AND_ORGANIZATION_ASSIGNMENT ( #99, #234, ( #37 ) ) ;
#39 = APPROVAL_ROLE ( '' ) ;
#40 = DIRECTION ( 'NONE',  ( 0.0000000000000000000, 0.0000000000000000000, 1.000000000000000000 ) ) ;
#41 = APPLICATION_CONTEXT ( 'configuration controlled 3d designs of mechanical parts and assemblies' ) ;
#42 = CIRCLE ( 'NONE', #120, 12.69999999999999900 ) ;
#43 = CC_DESIGN_PERSON_AND_ORGANIZATION_ASSIGNMENT ( #223, #128, ( #15 ) ) ;
#44 = VERTEX_POINT ( 'NONE', #212 ) ;
#45 = COORDINATED_UNIVERSAL_TIME_OFFSET ( 2, 0, .AHEAD. ) ;
#46 = EDGE_CURVE ( 'NONE', #188, #27, #58, .T. ) ;
#47 = VERTEX_POINT ( 'NONE', #211 ) ;
#48 = APPROVAL ( #215, 'UNSPECIFIED' ) ;
#49 = CIRCLE ( 'NONE', #235, 12.69999999999999900 ) ;
#50 = CARTESIAN_POINT ( 'NONE',  ( 4.235571021814567200, 12.85147319862264400, -0.8713348799916214000 ) ) ;
#51 = CARTESIAN_POINT ( 'NONE',  ( 12.65882076481595300, 12.85147319862264000, -1.724503833646210000 ) ) ;
#52 = DIRECTION ( 'NONE',  ( 1.000000000000000000, 0.0000000000000000000, 0.0000000000000000000 ) ) ;
#53 = CARTESIAN_POINT ( 'NONE',  ( 0.0000000000000000000, 0.0000000000000000000, 0.0000000000000000000 ) ) ;
#54 = PERSON_AND_ORGANIZATION ( #220, #8 ) ;
#55 = APPROVAL_STATUS ( 'not_yet_approved' ) ;
#56 =( NAMED_UNIT ( * ) SI_UNIT ( $, .STERADIAN. ) SOLID_ANGLE_UNIT ( ) );
#57 = CALENDAR_DATE ( 2019, 16, 1 ) ;
#58 = CIRCLE ( 'NONE', #175, 95.20999999999999400 ) ;
#59 = AXIS2_PLACEMENT_3D ( 'NONE', #9, #177, #65 ) ;
#60 = CALENDAR_DATE ( 2019, 16, 1 ) ;
#61 = CC_DESIGN_PERSON_AND_ORGANIZATION_ASSIGNMENT ( #54, #79, ( #15 ) ) ;
#62 = COORDINATED_UNIVERSAL_TIME_OFFSET ( 2, 0, .AHEAD. ) ;
#63 = FACE_OUTER_BOUND ( 'NONE', #80, .T. ) ;
#64 = SECURITY_CLASSIFICATION ( '', '', #16 ) ;
#65 = DIRECTION ( 'NONE',  ( 1.000000000000000000, 0.0000000000000000000, 0.0000000000000000000 ) ) ;
#66 = CARTESIAN_POINT ( 'NONE',  ( -3.621158817093093200E-014, -12.69999999999999600, -0.8508239756196270800 ) ) ;
#67 = PERSON_AND_ORGANIZATION ( #220, #8 ) ;
#68 = ORIENTED_EDGE ( 'NONE', *, *, #192, .T. ) ;
#69 = CARTESIAN_POINT ( 'NONE',  ( -3.620526134924563500E-014, -12.85147319862263000, -0.8713348799916226200 ) ) ;
#70 = CARTESIAN_POINT ( 'NONE',  ( -8.565918794912505500, 4.310121068828121500, 0.003895512210570686200 ) ) ;
#71 = DATE_AND_TIME ( #57, #12 ) ;
#72 = CARTESIAN_POINT ( 'NONE',  ( 4.996003610813200500E-016, 2.442490654175340100E-015, -0.8508239756196269700 ) ) ;
#73 = DATE_TIME_ROLE ( 'creation_date' ) ;
#74 = DIRECTION ( 'NONE',  ( 1.000000000000000000, 0.0000000000000000000, 0.0000000000000000000 ) ) ;
#75 = PERSON_AND_ORGANIZATION_ROLE ( 'creator' ) ;
#76 = APPROVAL_PERSON_ORGANIZATION ( #169, #48, #185 ) ;
#77 = AXIS2_PLACEMENT_3D ( 'NONE', #132, #131, #150 ) ;
#78 = VERTEX_POINT ( 'NONE', #14 ) ;
#79 = PERSON_AND_ORGANIZATION_ROLE ( 'creator' ) ;
#80 = EDGE_LOOP ( 'NONE', ( #227, #83 ) ) ;
#81 = CARTESIAN_POINT ( 'NONE',  ( 0.0000000000000000000, 26.11199999999999800, 3.100000000000000500 ) ) ;
#82 = DATE_AND_TIME ( #117, #113 ) ;
#83 = ORIENTED_EDGE ( 'NONE', *, *, #32, .F. ) ;
#84 = EDGE_CURVE ( 'NONE', #188, #44, #191, .T. ) ;
#85 = LINE ( 'NONE', #33, #36 ) ;
#86 = DATE_AND_TIME ( #190, #24 ) ;
#87 = ORIENTED_EDGE ( 'NONE', *, *, #112, .F. ) ;
#88 = CARTESIAN_POINT ( 'NONE',  ( 12.81495327383873600, 4.310121068828122400, -0.5714639616968787400 ) ) ;
#89 = CARTESIAN_POINT ( 'NONE',  ( -8.461554903374528500, 12.85147319862264400, -1.156154320394223300 ) ) ;
#90 = DIRECTION ( 'NONE',  ( 0.0000000000000000000, 0.0000000000000000000, 1.000000000000000000 ) ) ;
#91 = VECTOR ( 'NONE', #213, 1000.000000000000000 ) ;
#92 = AXIS2_PLACEMENT_3D ( 'NONE', #194, #11, #28 ) ;
#93 = DATE_TIME_ROLE ( 'classification_date' ) ;
#94 = CYLINDRICAL_SURFACE ( 'NONE', #92, 12.69999999999999900 ) ;
#95 = MECHANICAL_CONTEXT ( 'NONE', #21, 'mechanical' ) ;
#96 = ADVANCED_FACE ( 'NONE', ( #137 ), #168, .F. ) ;
#97 = CARTESIAN_POINT ( 'NONE',  ( -12.65882076481594400, -12.85147319862263000, -1.724503833646209700 ) ) ;
#98 = ORIENTED_EDGE ( 'NONE', *, *, #101, .T. ) ;
#99 = PERSON_AND_ORGANIZATION ( #220, #8 ) ;
#100 = ADVANCED_FACE ( 'NONE', ( #3 ), #94, .T. ) ;
#101 = EDGE_CURVE ( 'NONE', #189, #78, #85, .T. ) ;
#102 = PERSON_AND_ORGANIZATION ( #220, #8 ) ;
#103 = DATE_AND_TIME ( #134, #124 ) ;
#104 = CC_DESIGN_PERSON_AND_ORGANIZATION_ASSIGNMENT ( #153, #162, ( #64 ) ) ;
#105 = CARTESIAN_POINT ( 'NONE',  ( 8.565918794912477100, -4.310121068828110900, 0.003895512210573721900 ) ) ;
#106 = CARTESIAN_POINT ( 'NONE',  ( 12.65882076481595100, -12.85147319862263000, -1.724503833646209700 ) ) ;
#107 = CARTESIAN_POINT ( 'NONE',  ( -3.656417551492290700E-014, -4.310121068828110000, 0.2922278844000001900 ) ) ;
#108 = AXIS2_PLACEMENT_3D ( 'NONE', #81, #201, #167 ) ;
#109 = CARTESIAN_POINT ( 'NONE',  ( -12.81495327383872900, -4.310121068828110000, -0.5714639616968807400 ) ) ;
#110 = DIRECTION ( 'NONE',  ( 0.0000000000000000000, 0.0000000000000000000, 1.000000000000000000 ) ) ;
#111 =( NAMED_UNIT ( * ) PLANE_ANGLE_UNIT ( ) SI_UNIT ( $, .RADIAN. ) );
#112 = EDGE_CURVE ( 'NONE', #44, #47, #221, .T. ) ;
#113 = LOCAL_TIME ( 17, 17, 54.00000000000000000, #7 ) ;
#114 = CARTESIAN_POINT ( 'NONE',  ( 4.996003610813200500E-016, 2.442490654175340100E-015, -0.8508239756196269700 ) ) ;
#115 = ORIENTED_EDGE ( 'NONE', *, *, #112, .T. ) ;
#116 = APPROVAL ( #217, 'UNSPECIFIED' ) ;
#117 = CALENDAR_DATE ( 2019, 16, 1 ) ;
#118 = ORIENTED_EDGE ( 'NONE', *, *, #101, .F. ) ;
#119 = EDGE_LOOP ( 'NONE', ( #156, #121, #115, #207, #118 ) ) ;
#120 = AXIS2_PLACEMENT_3D ( 'NONE', #20, #186, #148 ) ;
#121 = ORIENTED_EDGE ( 'NONE', *, *, #84, .T. ) ;
#122 = CC_DESIGN_DATE_AND_TIME_ASSIGNMENT ( #82, #93, ( #64 ) ) ;
#123 = DIRECTION ( 'NONE',  ( 0.0000000000000000000, 1.000000000000000000, -2.915195422290611700E-016 ) ) ;
#124 = LOCAL_TIME ( 17, 17, 54.00000000000000000, #45 ) ;
#125 = CARTESIAN_POINT ( 'NONE',  ( 8.565918794912477100, 4.310121068828121500, 0.003895512210575998300 ) ) ;
#126 = CLOSED_SHELL ( 'NONE', ( #164, #18, #96, #100, #184 ) ) ;
#127 = DIRECTION ( 'NONE',  ( -0.0000000000000000000, -0.0000000000000000000, -1.000000000000000000 ) ) ;
#128 = PERSON_AND_ORGANIZATION_ROLE ( 'design_supplier' ) ;
#129 = APPROVAL_ROLE ( '' ) ;
#130 = ORIENTED_EDGE ( 'NONE', *, *, #84, .F. ) ;
#131 = DIRECTION ( 'NONE',  ( -0.0000000000000000000, -0.0000000000000000000, -1.000000000000000000 ) ) ;
#132 = CARTESIAN_POINT ( 'NONE',  ( 4.996003610813200500E-016, 2.442490654175340100E-015, 3.100000000000001000 ) ) ;
#133 = DIRECTION ( 'NONE',  ( 1.000000000000000000, 0.0000000000000000000, 0.0000000000000000000 ) ) ;
#134 = CALENDAR_DATE ( 2019, 16, 1 ) ;
#135 =( GEOMETRIC_REPRESENTATION_CONTEXT ( 3 ) GLOBAL_UNCERTAINTY_ASSIGNED_CONTEXT ( ( #187 ) ) GLOBAL_UNIT_ASSIGNED_CONTEXT ( ( #145, #111, #56 ) ) REPRESENTATION_CONTEXT ( 'NONE', 'WORKASPACE' ) );
#136 = LOCAL_TIME ( 17, 17, 54.00000000000000000, #172 ) ;
#137 = FACE_OUTER_BOUND ( 'NONE', #183, .T. ) ;
#138 = EDGE_LOOP ( 'NONE', ( #130, #19, #233 ) ) ;
#139 = APPROVAL_PERSON_ORGANIZATION ( #102, #222, #39 ) ;
#140 = DIRECTION ( 'NONE',  ( 1.000000000000000000, 0.0000000000000000000, 0.0000000000000000000 ) ) ;
#141 = CARTESIAN_POINT ( 'NONE',  ( -7.105427357601000300E-015, -7.105427357601000300E-015, -95.20999999999999400 ) ) ;
#142 = CARTESIAN_POINT ( 'NONE',  ( 8.461554903374503700, 12.85147319862264400, -1.156154320394217700 ) ) ;
#143 = PRODUCT_DEFINITION ( 'UNKNOWN', '', #15, #170 ) ;
#144 = CARTESIAN_POINT ( 'NONE',  ( 4.287812090952553700, 4.310121068828121500, 0.2922278844000039100 ) ) ;
#145 =( LENGTH_UNIT ( ) NAMED_UNIT ( * ) SI_UNIT ( .MILLI., .METRE. ) );
#146 = APPROVAL_DATE_TIME ( #103, #222 ) ;
#147 = CC_DESIGN_APPROVAL ( #116, ( #64 ) ) ;
#148 = DIRECTION ( 'NONE',  ( 1.000000000000000000, 0.0000000000000000000, 0.0000000000000000000 ) ) ;
#149 = APPROVAL_DATE_TIME ( #86, #116 ) ;
#150 = DIRECTION ( 'NONE',  ( 1.000000000000000000, 0.0000000000000000000, 0.0000000000000000000 ) ) ;
#151 = PERSON_AND_ORGANIZATION ( #220, #8 ) ;
#152 = CC_DESIGN_DATE_AND_TIME_ASSIGNMENT ( #163, #73, ( #143 ) ) ;
#153 = PERSON_AND_ORGANIZATION ( #220, #8 ) ;
#154 = CYLINDRICAL_SURFACE ( 'NONE', #59, 12.69999999999999900 ) ;
#155 = AXIS2_PLACEMENT_3D ( 'NONE', #72, #179, #52 ) ;
#156 = ORIENTED_EDGE ( 'NONE', *, *, #209, .T. ) ;
#157 = ADVANCED_BREP_SHAPE_REPRESENTATION ( '112-1219E UVFS pl-cv 25.4 F-200', ( #26, #214 ), #135 ) ;
#158 = CARTESIAN_POINT ( 'NONE',  ( -3.620526134924563500E-014, 12.85147319862264000, -0.8713348799916226200 ) ) ;
#159 = DIRECTION ( 'NONE',  ( 1.000000000000000000, 0.0000000000000000000, 0.0000000000000000000 ) ) ;
#160 = CARTESIAN_POINT ( 'NONE',  ( -12.69999999999999900, 3.997792089092478900E-015, -0.8508239756196269700 ) ) ;
#161 = CARTESIAN_POINT ( 'NONE',  ( 4.287812090952553700, -4.310121068828110900, 0.2922278844000015800 ) ) ;
#162 = PERSON_AND_ORGANIZATION_ROLE ( 'classification_officer' ) ;
#163 = DATE_AND_TIME ( #60, #136 ) ;
#164 = ADVANCED_FACE ( 'NONE', ( #178 ), #4, .F. ) ;
#165 = EDGE_LOOP ( 'NONE', ( #87, #68, #176, #98, #6 ) ) ;
#166 = ORIENTED_EDGE ( 'NONE', *, *, #209, .F. ) ;
#167 = DIRECTION ( 'NONE',  ( 1.000000000000000000, 0.0000000000000000000, -0.0000000000000000000 ) ) ;
#168 =( BOUNDED_SURFACE ( )  B_SPLINE_SURFACE ( 3, 3, ( 
 ( #158, #50, #142, #51 ),
 ( #230, #144, #125, #88 ),
 ( #107, #161, #105, #181 ),
 ( #69, #199, #13, #106 ) ),
 .UNSPECIFIED., .F., .F., .F. ) 
 B_SPLINE_SURFACE_WITH_KNOTS ( ( 4, 4 ),
 ( 4, 4 ),
 ( 0.0000000000000000000, 1.000000000000000000 ),
 ( 0.0000000000000000000, 1.000000000000000000 ),
 .UNSPECIFIED. ) 
 GEOMETRIC_REPRESENTATION_ITEM ( )  RATIONAL_B_SPLINE_SURFACE ( (
 ( 1.000000000000000000, 0.9984910117659392400, 0.9984910117659392400, 1.000000000000000000),
 ( 0.9938988560025793200, 0.9923990743230249900, 0.9923990743230249900, 0.9938988560025793200),
 ( 0.9938988560025793200, 0.9923990743230249900, 0.9923990743230249900, 0.9938988560025793200),
 ( 1.000000000000000000, 0.9984910117659392400, 0.9984910117659392400, 1.000000000000000000) ) ) 
 REPRESENTATION_ITEM ( '' )  SURFACE ( )  );
#169 = PERSON_AND_ORGANIZATION ( #220, #8 ) ;
#170 = DESIGN_CONTEXT ( 'detailed design', #41, 'design' ) ;
#171 = EDGE_CURVE ( 'NONE', #78, #47, #31, .T. ) ;
#172 = COORDINATED_UNIVERSAL_TIME_OFFSET ( 2, 0, .AHEAD. ) ;
#173 = SHAPE_DEFINITION_REPRESENTATION ( #216, #157 ) ;
#174 = CC_DESIGN_SECURITY_CLASSIFICATION ( #64, ( #15 ) ) ;
#175 = AXIS2_PLACEMENT_3D ( 'NONE', #141, #200, #123 ) ;
#176 = ORIENTED_EDGE ( 'NONE', *, *, #22, .T. ) ;
#177 = DIRECTION ( 'NONE',  ( 0.0000000000000000000, 0.0000000000000000000, 1.000000000000000000 ) ) ;
#178 = FACE_OUTER_BOUND ( 'NONE', #138, .T. ) ;
#179 = DIRECTION ( 'NONE',  ( 0.0000000000000000000, 0.0000000000000000000, 1.000000000000000000 ) ) ;
#180 = PLANE ( 'NONE',  #108 ) ;
#181 = CARTESIAN_POINT ( 'NONE',  ( 12.81495327383873600, -4.310121068828110000, -0.5714639616968809600 ) ) ;
#182 = APPLICATION_PROTOCOL_DEFINITION ( 'international standard', 'config_control_design', 1994, #41 ) ;
#183 = EDGE_LOOP ( 'NONE', ( #224, #166, #197 ) ) ;
#184 = ADVANCED_FACE ( 'NONE', ( #63 ), #180, .T. ) ;
#185 = APPROVAL_ROLE ( '' ) ;
#186 = DIRECTION ( 'NONE',  ( 0.0000000000000000000, 0.0000000000000000000, 1.000000000000000000 ) ) ;
#187 = UNCERTAINTY_MEASURE_WITH_UNIT (LENGTH_MEASURE( 1.000000000000000100E-005 ), #145, 'distance_accuracy_value', 'NONE');
#188 = VERTEX_POINT ( 'NONE', #203 ) ;
#189 = VERTEX_POINT ( 'NONE', #2 ) ;
#190 = CALENDAR_DATE ( 2019, 16, 1 ) ;
#191 = CIRCLE ( 'NONE', #208, 12.69999999999999900 ) ;
#192 = EDGE_CURVE ( 'NONE', #44, #27, #42, .T. ) ;
#193 = CIRCLE ( 'NONE', #10, 12.69999999999999900 ) ;
#194 = CARTESIAN_POINT ( 'NONE',  ( 4.996003610813200500E-016, 2.442490654175340100E-015, -0.8508239756196269700 ) ) ;
#195 = CC_DESIGN_PERSON_AND_ORGANIZATION_ASSIGNMENT ( #67, #75, ( #143 ) ) ;
#196 = CARTESIAN_POINT ( 'NONE',  ( 4.996003610813200500E-016, 2.442490654175340100E-015, -0.8508239756196269700 ) ) ;
#197 = ORIENTED_EDGE ( 'NONE', *, *, #22, .F. ) ;
#198 = CARTESIAN_POINT ( 'NONE',  ( -12.65882076481594400, 12.85147319862264000, -1.724503833646209700 ) ) ;
#199 = CARTESIAN_POINT ( 'NONE',  ( 4.235571021814567200, -12.85147319862263200, -0.8713348799916214000 ) ) ;
#200 = DIRECTION ( 'NONE',  ( 1.000000000000000000, 9.414397848674539600E-032, 3.084613711104210100E-016 ) ) ;
#201 = DIRECTION ( 'NONE',  ( 0.0000000000000000000, 0.0000000000000000000, 1.000000000000000000 ) ) ;
#202 = APPLICATION_PROTOCOL_DEFINITION ( 'international standard', 'config_control_design', 1994, #21 ) ;
#203 = CARTESIAN_POINT ( 'NONE',  ( -3.621158817093093200E-014, 12.69999999999999200, -0.8508239756196270800 ) ) ;
#204 = CARTESIAN_POINT ( 'NONE',  ( -4.235571021814625900, -12.85147319862263200, -0.8713348799916348400 ) ) ;
#205 = APPROVAL_DATE_TIME ( #71, #48 ) ;
#206 = CARTESIAN_POINT ( 'NONE',  ( -8.461554903374528500, -12.85147319862263200, -1.156154320394223300 ) ) ;
#207 = ORIENTED_EDGE ( 'NONE', *, *, #32, .T. ) ;
#208 = AXIS2_PLACEMENT_3D ( 'NONE', #196, #29, #140 ) ;
#209 = EDGE_CURVE ( 'NONE', #189, #188, #193, .T. ) ;
#210 = CIRCLE ( 'NONE', #155, 12.69999999999999900 ) ;
#211 = CARTESIAN_POINT ( 'NONE',  ( -12.69999999999999900, 3.997792089092478900E-015, 3.100000000000001000 ) ) ;
#212 = CARTESIAN_POINT ( 'NONE',  ( -12.69999999999999900, 3.997792089092478900E-015, -0.8508239756196269700 ) ) ;
#213 = DIRECTION ( 'NONE',  ( 0.0000000000000000000, 0.0000000000000000000, 1.000000000000000000 ) ) ;
#214 = AXIS2_PLACEMENT_3D ( 'NONE', #53, #110, #74 ) ;
#215 = APPROVAL_STATUS ( 'not_yet_approved' ) ;
#216 = PRODUCT_DEFINITION_SHAPE ( 'NONE', 'NONE',  #143 ) ;
#217 = APPROVAL_STATUS ( 'not_yet_approved' ) ;
#218 = CARTESIAN_POINT ( 'NONE',  ( -4.287812090952614100, 4.310121068828122400, 0.2922278843999903700 ) ) ;
#219 = FACE_OUTER_BOUND ( 'NONE', #119, .T. ) ;
#220 = PERSON ( 'UNSPECIFIED', 'UNSPECIFIED', 'UNSPECIFIED', ('UNSPECIFIED'), ('UNSPECIFIED'), ('UNSPECIFIED') ) ;
#221 = LINE ( 'NONE', #160, #91 ) ;
#222 = APPROVAL ( #55, 'UNSPECIFIED' ) ;
#223 = PERSON_AND_ORGANIZATION ( #220, #8 ) ;
#224 = ORIENTED_EDGE ( 'NONE', *, *, #46, .F. ) ;
#225 = PRODUCT_RELATED_PRODUCT_CATEGORY ( 'detail', '', ( #37 ) ) ;
#226 = CARTESIAN_POINT ( 'NONE',  ( -4.235571021814625900, 12.85147319862264400, -0.8713348799916348400 ) ) ;
#227 = ORIENTED_EDGE ( 'NONE', *, *, #171, .F. ) ;
#228 = CARTESIAN_POINT ( 'NONE',  ( -5.724587470723463400E-014, 12.85147319862264000, -0.8713348799916325000 ) ) ;
#229 = CARTESIAN_POINT ( 'NONE',  ( 4.996003610813200500E-016, 2.442490654175340100E-015, 3.100000000000001000 ) ) ;
#230 = CARTESIAN_POINT ( 'NONE',  ( -3.656417551492290700E-014, 4.310121068828122400, 0.2922278844000026400 ) ) ;
#231 = CARTESIAN_POINT ( 'NONE',  ( -5.898059818321144100E-014, 4.310121068828123300, 0.2922278843999927000 ) ) ;
#232 = APPROVAL_PERSON_ORGANIZATION ( #151, #116, #129 ) ;
#233 = ORIENTED_EDGE ( 'NONE', *, *, #192, .F. ) ;
#234 = PERSON_AND_ORGANIZATION_ROLE ( 'design_owner' ) ;
#235 = AXIS2_PLACEMENT_3D ( 'NONE', #229, #127, #159 ) ;
ENDSEC;
END-ISO-10303-21;
