ISO-10303-21;
HEADER;
FILE_DESCRIPTION (( 'STEP AP203' ),
    '1' );
FILE_NAME ('112-1217E UVFS pl-cv 25.4 F-150.STEP',
    '2019-01-16T15:10:13',
    ( '' ),
    ( '' ),
    'SwSTEP 2.0',
    'SolidWorks 2017',
    '' );
FILE_SCHEMA (( 'CONFIG_CONTROL_DESIGN' ));
ENDSEC;

DATA;
#1 = CALENDAR_DATE ( 2019, 16, 1 ) ;
#2 = CARTESIAN_POINT ( 'NONE',  ( -1.421085471520200100E-014, -6.349999999999994300, -0.3397574789489310500 ) ) ;
#3 = CC_DESIGN_APPROVAL ( #94, ( #196 ) ) ;
#4 = CARTESIAN_POINT ( 'NONE',  ( -6.400452182686539300, -2.150350082362039000, -0.2280775591134632200 ) ) ;
#5 = CARTESIAN_POINT ( 'NONE',  ( -4.240886808225665700, -6.425904225916069900, -0.4620066326990666700 ) ) ;
#6 = COORDINATED_UNIVERSAL_TIME_OFFSET ( 2, 0, .AHEAD. ) ;
#7 = CYLINDRICAL_SURFACE ( 'NONE', #216, 6.349999999999999600 ) ;
#8 = FACE_OUTER_BOUND ( 'NONE', #102, .T. ) ;
#9 = CALENDAR_DATE ( 2019, 16, 1 ) ;
#10 = DIRECTION ( 'NONE',  ( 0.0000000000000000000, 0.0000000000000000000, 1.000000000000000000 ) ) ;
#11 =( LENGTH_UNIT ( ) NAMED_UNIT ( * ) SI_UNIT ( .MILLI., .METRE. ) );
#12 = ORIENTED_EDGE ( 'NONE', *, *, #147, .F. ) ;
#13 = CARTESIAN_POINT ( 'NONE',  ( 0.0000000000000000000, 0.0000000000000000000, 0.0000000000000000000 ) ) ;
#14 = ORIENTED_EDGE ( 'NONE', *, *, #151, .T. ) ;
#15 = DATE_AND_TIME ( #103, #161 ) ;
#16 = AXIS2_PLACEMENT_3D ( 'NONE', #78, #98, #184 ) ;
#17 = CYLINDRICAL_SURFACE ( 'NONE', #55, 6.349999999999999600 ) ;
#18 = DATE_AND_TIME ( #9, #200 ) ;
#19 = CARTESIAN_POINT ( 'NONE',  ( -4.274175516980148100, 2.150350082362040300, 0.001488749900667370700 ) ) ;
#20 = CARTESIAN_POINT ( 'NONE',  ( -2.138633477097460200, -2.150350082362038500, 0.1164380659296415400 ) ) ;
#21 = CARTESIAN_POINT ( 'NONE',  ( -2.121977084146618300, 6.425904225916071700, -0.3479525803969927800 ) ) ;
#22 = VERTEX_POINT ( 'NONE', #134 ) ;
#23 = APPROVAL_PERSON_ORGANIZATION ( #220, #94, #231 ) ;
#24 = MANIFOLD_SOLID_BREP ( 'Imported1', #128 ) ;
#25 = CARTESIAN_POINT ( 'NONE',  ( 6.349999999999999600, 1.221245327087670000E-015, -0.3397574789489299900 ) ) ;
#26 = DIRECTION ( 'NONE',  ( 0.0000000000000000000, 1.000000000000000000, -2.332009377888499000E-016 ) ) ;
#27 = CARTESIAN_POINT ( 'NONE',  ( -1.421085471520199600E-014, 2.150350082362040700, 0.1164380659296479800 ) ) ;
#28 = EDGE_CURVE ( 'NONE', #60, #228, #56, .T. ) ;
#29 = APPROVAL_STATUS ( 'not_yet_approved' ) ;
#30 = DIRECTION ( 'NONE',  ( 0.0000000000000000000, 0.0000000000000000000, 1.000000000000000000 ) ) ;
#31 = ORIENTED_EDGE ( 'NONE', *, *, #28, .F. ) ;
#32 = APPROVAL_DATE_TIME ( #191, #111 ) ;
#33 = CC_DESIGN_DATE_AND_TIME_ASSIGNMENT ( #168, #217, ( #67 ) ) ;
#34 = EDGE_CURVE ( 'NONE', #122, #22, #109, .T. ) ;
#35 = PERSON_AND_ORGANIZATION ( #76, #121 ) ;
#36 = PRODUCT ( '112-1217E UVFS pl-cv 25.4 F-150', '112-1217E UVFS pl-cv 25.4 F-150', '', ( #47 ) ) ;
#37 = DIRECTION ( 'NONE',  ( 0.0000000000000000000, 0.0000000000000000000, 1.000000000000000000 ) ) ;
#38 = CARTESIAN_POINT ( 'NONE',  ( -2.862293735361731100E-014, -2.150350082362039000, 0.1164380659296420700 ) ) ;
#39 = DIRECTION ( 'NONE',  ( 1.000000000000000000, 0.0000000000000000000, 0.0000000000000000000 ) ) ;
#40 = DIRECTION ( 'NONE',  ( 1.000000000000000000, 0.0000000000000000000, 0.0000000000000000000 ) ) ;
#41 = DIRECTION ( 'NONE',  ( 1.000000000000000000, 0.0000000000000000000, 0.0000000000000000000 ) ) ;
#42 = LINE ( 'NONE', #126, #149 ) ;
#43 = CARTESIAN_POINT ( 'NONE',  ( 2.121977084146578800, 6.425904225916071700, -0.3479525803969928400 ) ) ;
#44 = CARTESIAN_POINT ( 'NONE',  ( 2.498001805406600200E-016, 1.221245327087670000E-015, -0.3397574789489299900 ) ) ;
#45 = CC_DESIGN_PERSON_AND_ORGANIZATION_ASSIGNMENT ( #49, #175, ( #234 ) ) ;
#46 = CARTESIAN_POINT ( 'NONE',  ( 2.498001805406600200E-016, 1.221245327087670000E-015, 2.700000000000000200 ) ) ;
#47 = MECHANICAL_CONTEXT ( 'NONE', #91, 'mechanical' ) ;
#48 = COORDINATED_UNIVERSAL_TIME_OFFSET ( 2, 0, .AHEAD. ) ;
#49 = PERSON_AND_ORGANIZATION ( #76, #121 ) ;
#50 = EDGE_CURVE ( 'NONE', #152, #60, #201, .T. ) ;
#51 = ADVANCED_FACE ( 'NONE', ( #156 ), #17, .T. ) ;
#52 = ORIENTED_EDGE ( 'NONE', *, *, #203, .F. ) ;
#53 = PERSON_AND_ORGANIZATION ( #76, #121 ) ;
#54 = FACE_OUTER_BOUND ( 'NONE', #198, .T. ) ;
#55 = AXIS2_PLACEMENT_3D ( 'NONE', #187, #37, #40 ) ;
#56 = CIRCLE ( 'NONE', #163, 6.349999999999999600 ) ;
#57 = CARTESIAN_POINT ( 'NONE',  ( -2.775557561562891400E-014, 6.425904225916072600, -0.3479525803969923400 ) ) ;
#58 = CARTESIAN_POINT ( 'NONE',  ( -2.688821387764051000E-014, -6.425904225916070800, -0.3479525803969992800 ) ) ;
#59 = CARTESIAN_POINT ( 'NONE',  ( 2.138633477097419400, 2.150350082362040300, 0.1164380659296479600 ) ) ;
#60 = VERTEX_POINT ( 'NONE', #80 ) ;
#61 = APPROVAL_PERSON_ORGANIZATION ( #35, #111, #194 ) ;
#62 = CARTESIAN_POINT ( 'NONE',  ( 6.400452182686505500, -2.150350082362039000, -0.2280775591134627800 ) ) ;
#63 = CC_DESIGN_PERSON_AND_ORGANIZATION_ASSIGNMENT ( #53, #69, ( #36 ) ) ;
#64 = CARTESIAN_POINT ( 'NONE',  ( 6.400452182686506400, 2.150350082362040700, -0.2280775591134562900 ) ) ;
#65 = CARTESIAN_POINT ( 'NONE',  ( 4.274175516980113400, -2.150350082362038500, 0.001488749900661217600 ) ) ;
#66 = FACE_OUTER_BOUND ( 'NONE', #206, .T. ) ;
#67 = PRODUCT_DEFINITION ( 'UNKNOWN', '', #196, #95 ) ;
#68 = DATE_TIME_ROLE ( 'classification_date' ) ;
#69 = PERSON_AND_ORGANIZATION_ROLE ( 'design_owner' ) ;
#70 = VERTEX_POINT ( 'NONE', #2 ) ;
#71 = APPROVAL_STATUS ( 'not_yet_approved' ) ;
#72 = CARTESIAN_POINT ( 'NONE',  ( -6.349999999999999600, 1.998896044546239400E-015, -0.3397574789489299900 ) ) ;
#73 = ORIENTED_EDGE ( 'NONE', *, *, #118, .F. ) ;
#74 = COORDINATED_UNIVERSAL_TIME_OFFSET ( 2, 0, .AHEAD. ) ;
#75 = ORIENTED_EDGE ( 'NONE', *, *, #199, .T. ) ;
#76 = PERSON ( 'UNSPECIFIED', 'UNSPECIFIED', 'UNSPECIFIED', ('UNSPECIFIED'), ('UNSPECIFIED'), ('UNSPECIFIED') ) ;
#77 = ORIENTED_EDGE ( 'NONE', *, *, #176, .F. ) ;
#78 = CARTESIAN_POINT ( 'NONE',  ( 2.498001805406600200E-016, 1.221245327087670000E-015, 2.700000000000000200 ) ) ;
#79 = PERSON_AND_ORGANIZATION ( #76, #121 ) ;
#80 = CARTESIAN_POINT ( 'NONE',  ( -1.421085471520200100E-014, 6.349999999999999600, -0.3397574789489310500 ) ) ;
#81 = AXIS2_PLACEMENT_3D ( 'NONE', #44, #213, #41 ) ;
#82 = CARTESIAN_POINT ( 'NONE',  ( -6.350603319962019100, -6.425904225916070800, -0.6897850025023993800 ) ) ;
#83 =( BOUNDED_SURFACE ( )  B_SPLINE_SURFACE ( 3, 3, ( 
 ( #125, #43, #171, #106 ),
 ( #27, #59, #188, #64 ),
 ( #209, #101, #65, #62 ),
 ( #211, #85, #192, #105 ) ),
 .UNSPECIFIED., .F., .F., .T. ) 
 B_SPLINE_SURFACE_WITH_KNOTS ( ( 4, 4 ),
 ( 4, 4 ),
 ( 0.0000000000000000000, 1.000000000000000000 ),
 ( 0.0000000000000000000, 1.000000000000000000 ),
 .UNSPECIFIED. ) 
 GEOMETRIC_REPRESENTATION_ITEM ( )  RATIONAL_B_SPLINE_SURFACE ( (
 ( 1.000000000000000000, 0.9990363200776420900, 0.9990363200776420900, 1.000000000000000000),
 ( 0.9961020267697640000, 0.9951421032459459900, 0.9951421032459459900, 0.9961020267697640000),
 ( 0.9961020267697640000, 0.9951421032459459900, 0.9951421032459459900, 0.9961020267697640000),
 ( 1.000000000000000000, 0.9990363200776420900, 0.9990363200776420900, 1.000000000000000000) ) ) 
 REPRESENTATION_ITEM ( '' )  SURFACE ( )  );
#84 = DIRECTION ( 'NONE',  ( 0.0000000000000000000, 0.0000000000000000000, 1.000000000000000000 ) ) ;
#85 = CARTESIAN_POINT ( 'NONE',  ( 2.121977084146578800, -6.425904225916069900, -0.3479525803969997800 ) ) ;
#86 = ORIENTED_EDGE ( 'NONE', *, *, #151, .F. ) ;
#87 = LOCAL_TIME ( 17, 10, 13.00000000000000000, #97 ) ;
#88 = CC_DESIGN_DATE_AND_TIME_ASSIGNMENT ( #166, #68, ( #234 ) ) ;
#89 = PLANE ( 'NONE',  #113 ) ;
#90 = PRODUCT_DEFINITION_SHAPE ( 'NONE', 'NONE',  #67 ) ;
#91 = APPLICATION_CONTEXT ( 'configuration controlled 3d designs of mechanical parts and assemblies' ) ;
#92 = DIRECTION ( 'NONE',  ( 1.000000000000000000, 0.0000000000000000000, 0.0000000000000000000 ) ) ;
#93 =( NAMED_UNIT ( * ) PLANE_ANGLE_UNIT ( ) SI_UNIT ( $, .RADIAN. ) );
#94 = APPROVAL ( #71, 'UNSPECIFIED' ) ;
#95 = DESIGN_CONTEXT ( 'detailed design', #162, 'design' ) ;
#96 = ORIENTED_EDGE ( 'NONE', *, *, #50, .T. ) ;
#97 = COORDINATED_UNIVERSAL_TIME_OFFSET ( 2, 0, .AHEAD. ) ;
#98 = DIRECTION ( 'NONE',  ( -0.0000000000000000000, -0.0000000000000000000, -1.000000000000000000 ) ) ;
#99 = PERSON_AND_ORGANIZATION ( #76, #121 ) ;
#100 = DIRECTION ( 'NONE',  ( 0.0000000000000000000, 0.0000000000000000000, 1.000000000000000000 ) ) ;
#101 = CARTESIAN_POINT ( 'NONE',  ( 2.138633477097418900, -2.150350082362038500, 0.1164380659296414100 ) ) ;
#102 = EDGE_LOOP ( 'NONE', ( #12, #108, #86 ) ) ;
#103 = CALENDAR_DATE ( 2019, 16, 1 ) ;
#104 = CC_DESIGN_PERSON_AND_ORGANIZATION_ASSIGNMENT ( #112, #138, ( #67 ) ) ;
#105 = CARTESIAN_POINT ( 'NONE',  ( 6.350603319961985300, -6.425904225916070800, -0.6897850025023989400 ) ) ;
#106 = CARTESIAN_POINT ( 'NONE',  ( 6.350603319961987100, 6.425904225916072600, -0.6897850025023921600 ) ) ;
#107 = PERSON_AND_ORGANIZATION ( #76, #121 ) ;
#108 = ORIENTED_EDGE ( 'NONE', *, *, #50, .F. ) ;
#109 = CIRCLE ( 'NONE', #16, 6.349999999999999600 ) ;
#110 = ADVANCED_FACE ( 'NONE', ( #115 ), #145, .F. ) ;
#111 = APPROVAL ( #230, 'UNSPECIFIED' ) ;
#112 = PERSON_AND_ORGANIZATION ( #76, #121 ) ;
#113 = AXIS2_PLACEMENT_3D ( 'NONE', #155, #84, #208 ) ;
#114 = DIRECTION ( 'NONE',  ( 1.000000000000000000, 0.0000000000000000000, 0.0000000000000000000 ) ) ;
#115 = FACE_OUTER_BOUND ( 'NONE', #180, .T. ) ;
#116 = VECTOR ( 'NONE', #30, 1000.000000000000000 ) ;
#117 = CARTESIAN_POINT ( 'NONE',  ( 2.498001805406600200E-016, 1.221245327087670000E-015, -0.3397574789489299900 ) ) ;
#118 = EDGE_CURVE ( 'NONE', #228, #70, #212, .T. ) ;
#119 = EDGE_LOOP ( 'NONE', ( #222, #182, #14, #232, #177 ) ) ;
#120 = AXIS2_PLACEMENT_3D ( 'NONE', #193, #123, #26 ) ;
#121 = ORGANIZATION ( 'UNSPECIFIED', 'UNSPECIFIED', '' ) ;
#122 = VERTEX_POINT ( 'NONE', #136 ) ;
#123 = DIRECTION ( 'NONE',  ( 1.000000000000000000, 0.0000000000000000000, 0.0000000000000000000 ) ) ;
#124 = AXIS2_PLACEMENT_3D ( 'NONE', #46, #174, #207 ) ;
#125 = CARTESIAN_POINT ( 'NONE',  ( -1.421085471520200100E-014, 6.425904225916072600, -0.3479525803969929500 ) ) ;
#126 = CARTESIAN_POINT ( 'NONE',  ( 6.349999999999999600, 1.221245327087670000E-015, -0.3397574789489299900 ) ) ;
#127 = AXIS2_PLACEMENT_3D ( 'NONE', #157, #154, #227 ) ;
#128 = CLOSED_SHELL ( 'NONE', ( #110, #167, #181, #51, #179 ) ) ;
#129 = PRODUCT_RELATED_PRODUCT_CATEGORY ( 'detail', '', ( #36 ) ) ;
#130 = APPROVAL ( #29, 'UNSPECIFIED' ) ;
#131 = CARTESIAN_POINT ( 'NONE',  ( -6.400452182686539300, 2.150350082362040700, -0.2280775591134565300 ) ) ;
#132 = CARTESIAN_POINT ( 'NONE',  ( -2.775557561562891000E-014, 2.150350082362040700, 0.1164380659296486700 ) ) ;
#133 = CARTESIAN_POINT ( 'NONE',  ( -4.240886808225666500, 6.425904225916071700, -0.4620066326990597300 ) ) ;
#134 = CARTESIAN_POINT ( 'NONE',  ( -6.349999999999999600, 1.998896044546239400E-015, 2.700000000000000200 ) ) ;
#135 = CALENDAR_DATE ( 2019, 16, 1 ) ;
#136 = CARTESIAN_POINT ( 'NONE',  ( 6.349999999999999600, 1.221245327087670000E-015, 2.700000000000000200 ) ) ;
#137 = DIRECTION ( 'NONE',  ( 1.000000000000000000, 0.0000000000000000000, 0.0000000000000000000 ) ) ;
#138 = PERSON_AND_ORGANIZATION_ROLE ( 'creator' ) ;
#139 = PERSON_AND_ORGANIZATION_ROLE ( 'creator' ) ;
#140 = PERSON_AND_ORGANIZATION_ROLE ( 'design_supplier' ) ;
#141 = SECURITY_CLASSIFICATION_LEVEL ( 'unclassified' ) ;
#142 = ORIENTED_EDGE ( 'NONE', *, *, #147, .T. ) ;
#143 =( GEOMETRIC_REPRESENTATION_CONTEXT ( 3 ) GLOBAL_UNCERTAINTY_ASSIGNED_CONTEXT ( ( #229 ) ) GLOBAL_UNIT_ASSIGNED_CONTEXT ( ( #11, #93, #218 ) ) REPRESENTATION_CONTEXT ( 'NONE', 'WORKASPACE' ) );
#144 = APPROVAL_PERSON_ORGANIZATION ( #79, #130, #160 ) ;
#145 =( BOUNDED_SURFACE ( )  B_SPLINE_SURFACE ( 3, 3, ( 
 ( #183, #133, #21, #57 ),
 ( #131, #19, #185, #132 ),
 ( #4, #169, #20, #38 ),
 ( #82, #5, #150, #58 ) ),
 .UNSPECIFIED., .F., .F., .T. ) 
 B_SPLINE_SURFACE_WITH_KNOTS ( ( 4, 4 ),
 ( 4, 4 ),
 ( 0.0000000000000000000, 1.000000000000000000 ),
 ( 0.0000000000000000000, 1.000000000000000000 ),
 .UNSPECIFIED. ) 
 GEOMETRIC_REPRESENTATION_ITEM ( )  RATIONAL_B_SPLINE_SURFACE ( (
 ( 1.000000000000000000, 0.9990363200776420900, 0.9990363200776420900, 1.000000000000000000),
 ( 0.9961020267697640000, 0.9951421032459459900, 0.9951421032459459900, 0.9961020267697640000),
 ( 0.9961020267697640000, 0.9951421032459459900, 0.9951421032459459900, 0.9961020267697640000),
 ( 1.000000000000000000, 0.9990363200776420900, 0.9990363200776420900, 1.000000000000000000) ) ) 
 REPRESENTATION_ITEM ( '' )  SURFACE ( )  );
#146 = LINE ( 'NONE', #72, #116 ) ;
#147 = EDGE_CURVE ( 'NONE', #60, #70, #153, .T. ) ;
#148 = DIRECTION ( 'NONE',  ( 0.0000000000000000000, 0.0000000000000000000, 1.000000000000000000 ) ) ;
#149 = VECTOR ( 'NONE', #10, 1000.000000000000000 ) ;
#150 = CARTESIAN_POINT ( 'NONE',  ( -2.121977084146617000, -6.425904225916069900, -0.3479525803969996700 ) ) ;
#151 = EDGE_CURVE ( 'NONE', #70, #152, #164, .T. ) ;
#152 = VERTEX_POINT ( 'NONE', #25 ) ;
#153 = CIRCLE ( 'NONE', #120, 59.50999999999999800 ) ;
#154 = DIRECTION ( 'NONE',  ( 0.0000000000000000000, 0.0000000000000000000, 1.000000000000000000 ) ) ;
#155 = CARTESIAN_POINT ( 'NONE',  ( 0.0000000000000000000, 13.15799999999999900, 2.700000000000000200 ) ) ;
#156 = FACE_OUTER_BOUND ( 'NONE', #119, .T. ) ;
#157 = CARTESIAN_POINT ( 'NONE',  ( 2.498001805406600200E-016, 1.221245327087670000E-015, -0.3397574789489299900 ) ) ;
#158 = DIRECTION ( 'NONE',  ( 0.0000000000000000000, 0.0000000000000000000, 1.000000000000000000 ) ) ;
#159 = APPLICATION_PROTOCOL_DEFINITION ( 'international standard', 'config_control_design', 1994, #91 ) ;
#160 = APPROVAL_ROLE ( '' ) ;
#161 = LOCAL_TIME ( 17, 10, 13.00000000000000000, #173 ) ;
#162 = APPLICATION_CONTEXT ( 'configuration controlled 3d designs of mechanical parts and assemblies' ) ;
#163 = AXIS2_PLACEMENT_3D ( 'NONE', #117, #100, #114 ) ;
#164 = CIRCLE ( 'NONE', #81, 6.349999999999999600 ) ;
#165 = ADVANCED_BREP_SHAPE_REPRESENTATION ( '112-1217E UVFS pl-cv 25.4 F-150', ( #24, #189 ), #143 ) ;
#166 = DATE_AND_TIME ( #135, #224 ) ;
#167 = ADVANCED_FACE ( 'NONE', ( #54 ), #7, .T. ) ;
#168 = DATE_AND_TIME ( #195, #87 ) ;
#169 = CARTESIAN_POINT ( 'NONE',  ( -4.274175516980148100, -2.150350082362038500, 0.001488749900660702600 ) ) ;
#170 = DIRECTION ( 'NONE',  ( 0.0000000000000000000, 0.0000000000000000000, 1.000000000000000000 ) ) ;
#171 = CARTESIAN_POINT ( 'NONE',  ( 4.240886808225631000, 6.425904225916071700, -0.4620066326990592300 ) ) ;
#172 = AXIS2_PLACEMENT_3D ( 'NONE', #205, #148, #39 ) ;
#173 = COORDINATED_UNIVERSAL_TIME_OFFSET ( 2, 0, .AHEAD. ) ;
#174 = DIRECTION ( 'NONE',  ( -0.0000000000000000000, -0.0000000000000000000, -1.000000000000000000 ) ) ;
#175 = PERSON_AND_ORGANIZATION_ROLE ( 'classification_officer' ) ;
#176 = EDGE_CURVE ( 'NONE', #22, #122, #197, .T. ) ;
#177 = ORIENTED_EDGE ( 'NONE', *, *, #34, .T. ) ;
#178 = APPROVAL_DATE_TIME ( #18, #130 ) ;
#179 = ADVANCED_FACE ( 'NONE', ( #66 ), #89, .T. ) ;
#180 = EDGE_LOOP ( 'NONE', ( #31, #142, #73 ) ) ;
#181 = ADVANCED_FACE ( 'NONE', ( #8 ), #83, .F. ) ;
#182 = ORIENTED_EDGE ( 'NONE', *, *, #118, .T. ) ;
#183 = CARTESIAN_POINT ( 'NONE',  ( -6.350603319962020000, 6.425904225916072600, -0.6897850025023923900 ) ) ;
#184 = DIRECTION ( 'NONE',  ( 1.000000000000000000, 0.0000000000000000000, 0.0000000000000000000 ) ) ;
#185 = CARTESIAN_POINT ( 'NONE',  ( -2.138633477097459300, 2.150350082362040300, 0.1164380659296481900 ) ) ;
#186 = ORIENTED_EDGE ( 'NONE', *, *, #28, .T. ) ;
#187 = CARTESIAN_POINT ( 'NONE',  ( 2.498001805406600200E-016, 1.221245327087670000E-015, -0.3397574789489299900 ) ) ;
#188 = CARTESIAN_POINT ( 'NONE',  ( 4.274175516980113400, 2.150350082362040300, 0.001488749900667749700 ) ) ;
#189 = AXIS2_PLACEMENT_3D ( 'NONE', #13, #158, #92 ) ;
#190 = ORIENTED_EDGE ( 'NONE', *, *, #176, .T. ) ;
#191 = DATE_AND_TIME ( #1, #226 ) ;
#192 = CARTESIAN_POINT ( 'NONE',  ( 4.240886808225629200, -6.425904225916069900, -0.4620066326990661100 ) ) ;
#193 = CARTESIAN_POINT ( 'NONE',  ( -1.421085471520200100E-014, 3.552713678800500100E-015, -59.50999999999999800 ) ) ;
#194 = APPROVAL_ROLE ( '' ) ;
#195 = CALENDAR_DATE ( 2019, 16, 1 ) ;
#196 = PRODUCT_DEFINITION_FORMATION_WITH_SPECIFIED_SOURCE ( 'ANY', '', #36, .NOT_KNOWN. ) ;
#197 = CIRCLE ( 'NONE', #124, 6.349999999999999600 ) ;
#198 = EDGE_LOOP ( 'NONE', ( #96, #186, #75, #190, #52 ) ) ;
#199 = EDGE_CURVE ( 'NONE', #228, #22, #146, .T. ) ;
#200 = LOCAL_TIME ( 17, 10, 13.00000000000000000, #6 ) ;
#201 = CIRCLE ( 'NONE', #172, 6.349999999999999600 ) ;
#202 = SHAPE_DEFINITION_REPRESENTATION ( #90, #165 ) ;
#203 = EDGE_CURVE ( 'NONE', #152, #122, #42, .T. ) ;
#204 = CC_DESIGN_APPROVAL ( #111, ( #234 ) ) ;
#205 = CARTESIAN_POINT ( 'NONE',  ( 2.498001805406600200E-016, 1.221245327087670000E-015, -0.3397574789489299900 ) ) ;
#206 = EDGE_LOOP ( 'NONE', ( #219, #77 ) ) ;
#207 = DIRECTION ( 'NONE',  ( 1.000000000000000000, 0.0000000000000000000, 0.0000000000000000000 ) ) ;
#208 = DIRECTION ( 'NONE',  ( 1.000000000000000000, 0.0000000000000000000, -0.0000000000000000000 ) ) ;
#209 = CARTESIAN_POINT ( 'NONE',  ( -1.421085471520199600E-014, -2.150350082362039000, 0.1164380659296414100 ) ) ;
#210 = CC_DESIGN_PERSON_AND_ORGANIZATION_ASSIGNMENT ( #99, #139, ( #196 ) ) ;
#211 = CARTESIAN_POINT ( 'NONE',  ( -1.421085471520200100E-014, -6.425904225916070800, -0.3479525803969998900 ) ) ;
#212 = CIRCLE ( 'NONE', #127, 6.349999999999999600 ) ;
#213 = DIRECTION ( 'NONE',  ( 0.0000000000000000000, 0.0000000000000000000, 1.000000000000000000 ) ) ;
#214 = CARTESIAN_POINT ( 'NONE',  ( -6.349999999999999600, 1.998896044546239400E-015, -0.3397574789489299900 ) ) ;
#215 = APPROVAL_DATE_TIME ( #15, #94 ) ;
#216 = AXIS2_PLACEMENT_3D ( 'NONE', #225, #170, #137 ) ;
#217 = DATE_TIME_ROLE ( 'creation_date' ) ;
#218 =( NAMED_UNIT ( * ) SI_UNIT ( $, .STERADIAN. ) SOLID_ANGLE_UNIT ( ) );
#219 = ORIENTED_EDGE ( 'NONE', *, *, #34, .F. ) ;
#220 = PERSON_AND_ORGANIZATION ( #76, #121 ) ;
#221 = CC_DESIGN_APPROVAL ( #130, ( #67 ) ) ;
#222 = ORIENTED_EDGE ( 'NONE', *, *, #199, .F. ) ;
#223 = CC_DESIGN_PERSON_AND_ORGANIZATION_ASSIGNMENT ( #107, #140, ( #196 ) ) ;
#224 = LOCAL_TIME ( 17, 10, 13.00000000000000000, #74 ) ;
#225 = CARTESIAN_POINT ( 'NONE',  ( 2.498001805406600200E-016, 1.221245327087670000E-015, -0.3397574789489299900 ) ) ;
#226 = LOCAL_TIME ( 17, 10, 13.00000000000000000, #48 ) ;
#227 = DIRECTION ( 'NONE',  ( 1.000000000000000000, 0.0000000000000000000, 0.0000000000000000000 ) ) ;
#228 = VERTEX_POINT ( 'NONE', #214 ) ;
#229 = UNCERTAINTY_MEASURE_WITH_UNIT (LENGTH_MEASURE( 1.000000000000000100E-005 ), #11, 'distance_accuracy_value', 'NONE');
#230 = APPROVAL_STATUS ( 'not_yet_approved' ) ;
#231 = APPROVAL_ROLE ( '' ) ;
#232 = ORIENTED_EDGE ( 'NONE', *, *, #203, .T. ) ;
#233 = APPLICATION_PROTOCOL_DEFINITION ( 'international standard', 'config_control_design', 1994, #162 ) ;
#234 = SECURITY_CLASSIFICATION ( '', '', #141 ) ;
#235 = CC_DESIGN_SECURITY_CLASSIFICATION ( #234, ( #196 ) ) ;
ENDSEC;
END-ISO-10303-21;
