ISO-10303-21;
HEADER;
FILE_DESCRIPTION (( 'STEP AP203' ),
    '1' );
FILE_NAME ('112-1211E UVFS pl-cv 25.4 F-100.STEP',
    '2019-01-16T14:53:44',
    ( '' ),
    ( '' ),
    'SwSTEP 2.0',
    'SolidWorks 2017',
    '' );
FILE_SCHEMA (( 'CONFIG_CONTROL_DESIGN' ));
ENDSEC;

DATA;
#1 = DIRECTION ( 'NONE',  ( 0.0000000000000000000, 0.0000000000000000000, 1.000000000000000000 ) ) ;
#2 = LOCAL_TIME ( 16, 53, 44.00000000000000000, #78 ) ;
#3 = VERTEX_POINT ( 'NONE', #54 ) ;
#4 =( LENGTH_UNIT ( ) NAMED_UNIT ( * ) SI_UNIT ( .MILLI., .METRE. ) );
#5 = DIRECTION ( 'NONE',  ( 1.000000000000000000, 9.412420553253650200E-032, -3.084289765114799800E-016 ) ) ;
#6 = CC_DESIGN_APPROVAL ( #230, ( #142 ) ) ;
#7 = CALENDAR_DATE ( 2019, 16, 1 ) ;
#8 = AXIS2_PLACEMENT_3D ( 'NONE', #81, #122, #203 ) ;
#9 = SHAPE_DEFINITION_REPRESENTATION ( #60, #107 ) ;
#10 = CIRCLE ( 'NONE', #91, 12.69999999999999900 ) ;
#11 = DIRECTION ( 'NONE',  ( 0.0000000000000000000, 0.0000000000000000000, 1.000000000000000000 ) ) ;
#12 = PERSON_AND_ORGANIZATION ( #163, #216 ) ;
#13 = ORIENTED_EDGE ( 'NONE', *, *, #119, .F. ) ;
#14 = CARTESIAN_POINT ( 'NONE',  ( -12.30034609137242200, 12.84861107305675400, -3.447495773837933300 ) ) ;
#15 = CARTESIAN_POINT ( 'NONE',  ( 4.996003610813200500E-016, 2.442490654175340100E-015, -1.725121227140640200 ) ) ;
#16 = CARTESIAN_POINT ( 'NONE',  ( 4.996003610813200500E-016, 2.442490654175340100E-015, -1.725121227140640200 ) ) ;
#17 = EDGE_LOOP ( 'NONE', ( #188, #211 ) ) ;
#18 = ADVANCED_FACE ( 'NONE', ( #121 ), #93, .F. ) ;
#19 = DIRECTION ( 'NONE',  ( 1.000000000000000000, 0.0000000000000000000, 0.0000000000000000000 ) ) ;
#20 = COORDINATED_UNIVERSAL_TIME_OFFSET ( 2, 0, .AHEAD. ) ;
#21 = APPROVAL_ROLE ( '' ) ;
#22 = EDGE_CURVE ( 'NONE', #175, #3, #10, .T. ) ;
#23 = DATE_TIME_ROLE ( 'creation_date' ) ;
#24 = EDGE_LOOP ( 'NONE', ( #209, #115, #127, #46, #83 ) ) ;
#25 = APPLICATION_CONTEXT ( 'configuration controlled 3d designs of mechanical parts and assemblies' ) ;
#26 = PERSON_AND_ORGANIZATION ( #163, #216 ) ;
#27 = FACE_OUTER_BOUND ( 'NONE', #17, .T. ) ;
#28 = AXIS2_PLACEMENT_3D ( 'NONE', #73, #182, #234 ) ;
#29 = DATE_AND_TIME ( #179, #2 ) ;
#30 = ORIENTED_EDGE ( 'NONE', *, *, #48, .F. ) ;
#31 = AXIS2_PLACEMENT_3D ( 'NONE', #34, #148, #135 ) ;
#32 = AXIS2_PLACEMENT_3D ( 'NONE', #171, #1, #201 ) ;
#33 = CARTESIAN_POINT ( 'NONE',  ( 4.996003610813200500E-016, 2.442490654175340100E-015, 3.000000000000000000 ) ) ;
#34 = CARTESIAN_POINT ( 'NONE',  ( 0.0000000000000000000, 26.11199999999999800, 3.000000000000000000 ) ) ;
#35 = CARTESIAN_POINT ( 'NONE',  ( 12.69999999999999900, 2.442490654175340100E-015, -1.725121227140640200 ) ) ;
#36 = APPLICATION_CONTEXT ( 'configuration controlled 3d designs of mechanical parts and assemblies' ) ;
#37 = LOCAL_TIME ( 16, 53, 44.00000000000000000, #200 ) ;
#38 = CARTESIAN_POINT ( 'NONE',  ( -8.289233612811900200, -12.84861107305677100, -2.330302069308634900 ) ) ;
#39 = CIRCLE ( 'NONE', #28, 12.69999999999999900 ) ;
#40 = CC_DESIGN_APPROVAL ( #147, ( #104 ) ) ;
#41 = DIRECTION ( 'NONE',  ( 1.000000000000000000, 0.0000000000000000000, 0.0000000000000000000 ) ) ;
#42 = CARTESIAN_POINT ( 'NONE',  ( -8.717819056252302800, 4.391497936215766500, 0.01083347143406975700 ) ) ;
#43 = DATE_TIME_ROLE ( 'classification_date' ) ;
#44 = PERSON_AND_ORGANIZATION_ROLE ( 'creator' ) ;
#45 = EDGE_CURVE ( 'NONE', #195, #178, #100, .T. ) ;
#46 = ORIENTED_EDGE ( 'NONE', *, *, #198, .T. ) ;
#47 = CC_DESIGN_PERSON_AND_ORGANIZATION_ASSIGNMENT ( #26, #88, ( #181 ) ) ;
#48 = EDGE_CURVE ( 'NONE', #126, #175, #39, .T. ) ;
#49 = APPROVAL_PERSON_ORGANIZATION ( #225, #128, #21 ) ;
#50 = FACE_OUTER_BOUND ( 'NONE', #24, .T. ) ;
#51 = PLANE ( 'NONE',  #31 ) ;
#52 = CC_DESIGN_PERSON_AND_ORGANIZATION_ASSIGNMENT ( #98, #158, ( #104 ) ) ;
#53 = CARTESIAN_POINT ( 'NONE',  ( 12.30034609137239000, 12.84861107305675200, -3.447495773837932400 ) ) ;
#54 = CARTESIAN_POINT ( 'NONE',  ( -12.69999999999999900, 3.997792089092478900E-015, -1.725121227140640200 ) ) ;
#55 = CARTESIAN_POINT ( 'NONE',  ( 12.93632156634190100, -4.391497936215786900, -1.164123469315834400 ) ) ;
#56 = CARTESIAN_POINT ( 'NONE',  ( 4.996003610813200500E-016, 2.442490654175340100E-015, 3.000000000000000000 ) ) ;
#57 = ADVANCED_FACE ( 'NONE', ( #27 ), #51, .T. ) ;
#58 = CARTESIAN_POINT ( 'NONE',  ( -4.379073787942937600, -4.391497936215787800, 0.6037725382629819400 ) ) ;
#59 = CIRCLE ( 'NONE', #102, 12.69999999999999900 ) ;
#60 = PRODUCT_DEFINITION_SHAPE ( 'NONE', 'NONE',  #118 ) ;
#61 = CARTESIAN_POINT ( 'NONE',  ( 4.996003610813200500E-016, 2.442490654175340100E-015, -1.725121227140640200 ) ) ;
#62 = AXIS2_PLACEMENT_3D ( 'NONE', #61, #151, #103 ) ;
#63 = CARTESIAN_POINT ( 'NONE',  ( -4.163789750828429200, -12.84861107305677300, -1.766513074447286600 ) ) ;
#64 = DATE_AND_TIME ( #208, #160 ) ;
#65 = APPROVAL_ROLE ( '' ) ;
#66 = APPROVAL_ROLE ( '' ) ;
#67 = CLOSED_SHELL ( 'NONE', ( #133, #219, #18, #199, #57 ) ) ;
#68 = UNCERTAINTY_MEASURE_WITH_UNIT (LENGTH_MEASURE( 1.000000000000000100E-005 ), #4, 'distance_accuracy_value', 'NONE');
#69 = CALENDAR_DATE ( 2019, 16, 1 ) ;
#70 = ORIENTED_EDGE ( 'NONE', *, *, #228, .F. ) ;
#71 = AXIS2_PLACEMENT_3D ( 'NONE', #16, #97, #220 ) ;
#72 = CARTESIAN_POINT ( 'NONE',  ( 7.034032394564635600E-015, 12.84861107305675200, -1.766513074447285900 ) ) ;
#73 = CARTESIAN_POINT ( 'NONE',  ( 4.996003610813200500E-016, 2.442490654175340100E-015, -1.725121227140640200 ) ) ;
#74 = DATE_AND_TIME ( #69, #165 ) ;
#75 = EDGE_LOOP ( 'NONE', ( #70, #30, #13 ) ) ;
#76 = CARTESIAN_POINT ( 'NONE',  ( 8.717819056252281500, 4.391497936215769100, 0.01083347143406390400 ) ) ;
#77 = CARTESIAN_POINT ( 'NONE',  ( 4.379073787942928700, -4.391497936215787800, 0.6037725382629720600 ) ) ;
#78 = COORDINATED_UNIVERSAL_TIME_OFFSET ( 2, 0, .AHEAD. ) ;
#79 = CARTESIAN_POINT ( 'NONE',  ( -12.93632156634193500, 4.391497936215766500, -1.164123469315826200 ) ) ;
#80 = DIRECTION ( 'NONE',  ( 0.0000000000000000000, 0.0000000000000000000, 1.000000000000000000 ) ) ;
#81 = CARTESIAN_POINT ( 'NONE',  ( 4.996003610813200500E-016, 2.442490654175340100E-015, -1.725121227140640200 ) ) ;
#82 = COORDINATED_UNIVERSAL_TIME_OFFSET ( 2, 0, .AHEAD. ) ;
#83 = ORIENTED_EDGE ( 'NONE', *, *, #45, .T. ) ;
#84 = CARTESIAN_POINT ( 'NONE',  ( -5.204170427930421300E-015, -4.391497936215786900, 0.6037725382629817200 ) ) ;
#85 = APPROVAL_STATUS ( 'not_yet_approved' ) ;
#86 = APPROVAL_PERSON_ORGANIZATION ( #136, #147, #66 ) ;
#87 =( BOUNDED_SURFACE ( )  B_SPLINE_SURFACE ( 3, 3, ( 
 ( #14, #214, #174, #149 ),
 ( #79, #42, #172, #221 ),
 ( #123, #189, #58, #84 ),
 ( #190, #38, #63, #205 ) ),
 .UNSPECIFIED., .F., .F., .F. ) 
 B_SPLINE_SURFACE_WITH_KNOTS ( ( 4, 4 ),
 ( 4, 4 ),
 ( 0.0000000000000000000, 1.000000000000000000 ),
 ( 0.0000000000000000000, 1.000000000000000000 ),
 .UNSPECIFIED. ) 
 GEOMETRIC_REPRESENTATION_ITEM ( )  RATIONAL_B_SPLINE_SURFACE ( (
 ( 1.000000000000000000, 0.9938604186506889700, 0.9938604186506889700, 1.000000000000000000),
 ( 0.9752641171399947200, 0.9692764037557497500, 0.9692764037557497500, 0.9752641171399947200),
 ( 0.9752641171399947200, 0.9692764037557497500, 0.9692764037557497500, 0.9752641171399947200),
 ( 1.000000000000000000, 0.9938604186506889700, 0.9938604186506889700, 1.000000000000000000) ) ) 
 REPRESENTATION_ITEM ( '' )  SURFACE ( )  );
#88 = PERSON_AND_ORGANIZATION_ROLE ( 'design_owner' ) ;
#89 = CC_DESIGN_PERSON_AND_ORGANIZATION_ASSIGNMENT ( #143, #44, ( #118 ) ) ;
#90 = CYLINDRICAL_SURFACE ( 'NONE', #32, 12.69999999999999900 ) ;
#91 = AXIS2_PLACEMENT_3D ( 'NONE', #15, #144, #164 ) ;
#92 = CC_DESIGN_APPROVAL ( #128, ( #118 ) ) ;
#93 =( BOUNDED_SURFACE ( )  B_SPLINE_SURFACE ( 3, 3, ( 
 ( #72, #95, #113, #53 ),
 ( #233, #116, #76, #185 ),
 ( #96, #77, #167, #55 ),
 ( #117, #197, #168, #232 ) ),
 .UNSPECIFIED., .F., .F., .F. ) 
 B_SPLINE_SURFACE_WITH_KNOTS ( ( 4, 4 ),
 ( 4, 4 ),
 ( 0.0000000000000000000, 1.000000000000000000 ),
 ( 0.0000000000000000000, 1.000000000000000000 ),
 .UNSPECIFIED. ) 
 GEOMETRIC_REPRESENTATION_ITEM ( )  RATIONAL_B_SPLINE_SURFACE ( (
 ( 1.000000000000000000, 0.9938604186506889700, 0.9938604186506889700, 1.000000000000000000),
 ( 0.9752641171399947200, 0.9692764037557497500, 0.9692764037557497500, 0.9752641171399947200),
 ( 0.9752641171399947200, 0.9692764037557497500, 0.9692764037557497500, 0.9752641171399947200),
 ( 1.000000000000000000, 0.9938604186506889700, 0.9938604186506889700, 1.000000000000000000) ) ) 
 REPRESENTATION_ITEM ( '' )  SURFACE ( )  );
#94 = ORIENTED_EDGE ( 'NONE', *, *, #22, .T. ) ;
#95 = CARTESIAN_POINT ( 'NONE',  ( 4.163789750828420300, 12.84861107305675200, -1.766513074447287000 ) ) ;
#96 = CARTESIAN_POINT ( 'NONE',  ( 7.765097160132748300E-015, -4.391497936215786900, 0.6037725382629735000 ) ) ;
#97 = DIRECTION ( 'NONE',  ( 0.0000000000000000000, 0.0000000000000000000, 1.000000000000000000 ) ) ;
#98 = PERSON_AND_ORGANIZATION ( #163, #216 ) ;
#99 = CC_DESIGN_DATE_AND_TIME_ASSIGNMENT ( #110, #23, ( #118 ) ) ;
#100 = CIRCLE ( 'NONE', #130, 12.69999999999999900 ) ;
#101 = CARTESIAN_POINT ( 'NONE',  ( 7.046798839665343400E-015, 12.69999999999999800, -1.725121227140641300 ) ) ;
#102 = AXIS2_PLACEMENT_3D ( 'NONE', #56, #139, #19 ) ;
#103 = DIRECTION ( 'NONE',  ( 1.000000000000000000, 0.0000000000000000000, 0.0000000000000000000 ) ) ;
#104 = PRODUCT_DEFINITION_FORMATION_WITH_SPECIFIED_SOURCE ( 'ANY', '', #181, .NOT_KNOWN. ) ;
#105 = AXIS2_PLACEMENT_3D ( 'NONE', #152, #153, #41 ) ;
#106 = APPROVAL_STATUS ( 'not_yet_approved' ) ;
#107 = ADVANCED_BREP_SHAPE_REPRESENTATION ( '112-1211E UVFS pl-cv 25.4 F-100', ( #137, #105 ), #212 ) ;
#108 = EDGE_CURVE ( 'NONE', #3, #178, #227, .T. ) ;
#109 = AXIS2_PLACEMENT_3D ( 'NONE', #204, #5, #124 ) ;
#110 = DATE_AND_TIME ( #177, #37 ) ;
#111 = VECTOR ( 'NONE', #80, 1000.000000000000000 ) ;
#112 = PRODUCT_RELATED_PRODUCT_CATEGORY ( 'detail', '', ( #181 ) ) ;
#113 = CARTESIAN_POINT ( 'NONE',  ( 8.289233612811877100, 12.84861107305675200, -2.330302069308633200 ) ) ;
#114 = CC_DESIGN_SECURITY_CLASSIFICATION ( #142, ( #104 ) ) ;
#115 = ORIENTED_EDGE ( 'NONE', *, *, #157, .T. ) ;
#116 = CARTESIAN_POINT ( 'NONE',  ( 4.379073787942929600, 4.391497936215768200, 0.6037725382629800500 ) ) ;
#117 = CARTESIAN_POINT ( 'NONE',  ( 7.034032394564635600E-015, -12.84861107305676600, -1.766513074447293000 ) ) ;
#118 = PRODUCT_DEFINITION ( 'UNKNOWN', '', #104, #140 ) ;
#119 = EDGE_CURVE ( 'NONE', #231, #126, #193, .T. ) ;
#120 = CARTESIAN_POINT ( 'NONE',  ( 12.69999999999999900, 2.442490654175340100E-015, 3.000000000000000000 ) ) ;
#121 = FACE_OUTER_BOUND ( 'NONE', #75, .T. ) ;
#122 = DIRECTION ( 'NONE',  ( 0.0000000000000000000, 0.0000000000000000000, 1.000000000000000000 ) ) ;
#123 = CARTESIAN_POINT ( 'NONE',  ( -12.93632156634193500, -4.391497936215786900, -1.164123469315832700 ) ) ;
#124 = DIRECTION ( 'NONE',  ( 0.0000000000000000000, 1.000000000000000000, 2.914889268602070600E-016 ) ) ;
#125 = ORIENTED_EDGE ( 'NONE', *, *, #108, .T. ) ;
#126 = VERTEX_POINT ( 'NONE', #35 ) ;
#127 = ORIENTED_EDGE ( 'NONE', *, *, #119, .T. ) ;
#128 = APPROVAL ( #192, 'UNSPECIFIED' ) ;
#129 = ORIENTED_EDGE ( 'NONE', *, *, #228, .T. ) ;
#130 = AXIS2_PLACEMENT_3D ( 'NONE', #33, #235, #166 ) ;
#131 = APPROVAL_DATE_TIME ( #194, #147 ) ;
#132 = CIRCLE ( 'NONE', #109, 47.60999999999999200 ) ;
#133 = ADVANCED_FACE ( 'NONE', ( #159 ), #87, .F. ) ;
#134 = CC_DESIGN_PERSON_AND_ORGANIZATION_ASSIGNMENT ( #150, #191, ( #104 ) ) ;
#135 = DIRECTION ( 'NONE',  ( 1.000000000000000000, 0.0000000000000000000, -0.0000000000000000000 ) ) ;
#136 = PERSON_AND_ORGANIZATION ( #163, #216 ) ;
#137 = MANIFOLD_SOLID_BREP ( 'Imported1', #67 ) ;
#138 = APPLICATION_PROTOCOL_DEFINITION ( 'international standard', 'config_control_design', 1994, #36 ) ;
#139 = DIRECTION ( 'NONE',  ( -0.0000000000000000000, -0.0000000000000000000, -1.000000000000000000 ) ) ;
#140 = DESIGN_CONTEXT ( 'detailed design', #25, 'design' ) ;
#141 = EDGE_LOOP ( 'NONE', ( #223, #94, #125, #217, #206 ) ) ;
#142 = SECURITY_CLASSIFICATION ( '', '', #156 ) ;
#143 = PERSON_AND_ORGANIZATION ( #163, #216 ) ;
#144 = DIRECTION ( 'NONE',  ( 0.0000000000000000000, 0.0000000000000000000, 1.000000000000000000 ) ) ;
#145 = EDGE_CURVE ( 'NONE', #178, #195, #59, .T. ) ;
#146 = CARTESIAN_POINT ( 'NONE',  ( -12.69999999999999900, 3.997792089092478900E-015, -1.725121227140640200 ) ) ;
#147 = APPROVAL ( #106, 'UNSPECIFIED' ) ;
#148 = DIRECTION ( 'NONE',  ( 0.0000000000000000000, 0.0000000000000000000, 1.000000000000000000 ) ) ;
#149 = CARTESIAN_POINT ( 'NONE',  ( -3.469446951953614200E-015, 12.84861107305675200, -1.766513074447281200 ) ) ;
#150 = PERSON_AND_ORGANIZATION ( #163, #216 ) ;
#151 = DIRECTION ( 'NONE',  ( 0.0000000000000000000, 0.0000000000000000000, 1.000000000000000000 ) ) ;
#152 = CARTESIAN_POINT ( 'NONE',  ( 0.0000000000000000000, 0.0000000000000000000, 0.0000000000000000000 ) ) ;
#153 = DIRECTION ( 'NONE',  ( 0.0000000000000000000, 0.0000000000000000000, 1.000000000000000000 ) ) ;
#154 = APPROVAL_DATE_TIME ( #64, #230 ) ;
#155 = ORIENTED_EDGE ( 'NONE', *, *, #22, .F. ) ;
#156 = SECURITY_CLASSIFICATION_LEVEL ( 'unclassified' ) ;
#157 = EDGE_CURVE ( 'NONE', #3, #231, #202, .T. ) ;
#158 = PERSON_AND_ORGANIZATION_ROLE ( 'design_supplier' ) ;
#159 = FACE_OUTER_BOUND ( 'NONE', #162, .T. ) ;
#160 = LOCAL_TIME ( 16, 53, 44.00000000000000000, #20 ) ;
#161 = LINE ( 'NONE', #173, #111 ) ;
#162 = EDGE_LOOP ( 'NONE', ( #155, #129, #213 ) ) ;
#163 = PERSON ( 'UNSPECIFIED', 'UNSPECIFIED', 'UNSPECIFIED', ('UNSPECIFIED'), ('UNSPECIFIED'), ('UNSPECIFIED') ) ;
#164 = DIRECTION ( 'NONE',  ( 1.000000000000000000, 0.0000000000000000000, 0.0000000000000000000 ) ) ;
#165 = LOCAL_TIME ( 16, 53, 44.00000000000000000, #82 ) ;
#166 = DIRECTION ( 'NONE',  ( 1.000000000000000000, 0.0000000000000000000, 0.0000000000000000000 ) ) ;
#167 = CARTESIAN_POINT ( 'NONE',  ( 8.717819056252279700, -4.391497936215786900, 0.01083347143405587500 ) ) ;
#168 = CARTESIAN_POINT ( 'NONE',  ( 8.289233612811877100, -12.84861107305676600, -2.330302069308639400 ) ) ;
#169 = LOCAL_TIME ( 16, 53, 44.00000000000000000, #210 ) ;
#170 = FACE_OUTER_BOUND ( 'NONE', #141, .T. ) ;
#171 = CARTESIAN_POINT ( 'NONE',  ( 4.996003610813200500E-016, 2.442490654175340100E-015, -1.725121227140640200 ) ) ;
#172 = CARTESIAN_POINT ( 'NONE',  ( -4.379073787942936700, 4.391497936215766500, 0.6037725382629881600 ) ) ;
#173 = CARTESIAN_POINT ( 'NONE',  ( 12.69999999999999900, 2.442490654175340100E-015, -1.725121227140640200 ) ) ;
#174 = CARTESIAN_POINT ( 'NONE',  ( -4.163789750828429200, 12.84861107305675200, -1.766513074447280800 ) ) ;
#175 = VERTEX_POINT ( 'NONE', #101 ) ;
#176 = APPLICATION_PROTOCOL_DEFINITION ( 'international standard', 'config_control_design', 1994, #25 ) ;
#177 = CALENDAR_DATE ( 2019, 16, 1 ) ;
#178 = VERTEX_POINT ( 'NONE', #222 ) ;
#179 = CALENDAR_DATE ( 2019, 16, 1 ) ;
#180 = APPROVAL_DATE_TIME ( #29, #128 ) ;
#181 = PRODUCT ( '112-1211E UVFS pl-cv 25.4 F-100', '112-1211E UVFS pl-cv 25.4 F-100', '', ( #207 ) ) ;
#182 = DIRECTION ( 'NONE',  ( 0.0000000000000000000, 0.0000000000000000000, 1.000000000000000000 ) ) ;
#183 = PERSON_AND_ORGANIZATION ( #163, #216 ) ;
#184 = VECTOR ( 'NONE', #11, 1000.000000000000000 ) ;
#185 = CARTESIAN_POINT ( 'NONE',  ( 12.93632156634190300, 4.391497936215770000, -1.164123469315826700 ) ) ;
#186 = CC_DESIGN_PERSON_AND_ORGANIZATION_ASSIGNMENT ( #183, #226, ( #142 ) ) ;
#187 = CARTESIAN_POINT ( 'NONE',  ( 7.046798839665343400E-015, -12.70000000000000600, -1.725121227140648400 ) ) ;
#188 = ORIENTED_EDGE ( 'NONE', *, *, #45, .F. ) ;
#189 = CARTESIAN_POINT ( 'NONE',  ( -8.717819056252304600, -4.391497936215787800, 0.01083347143406325100 ) ) ;
#190 = CARTESIAN_POINT ( 'NONE',  ( -12.30034609137242400, -12.84861107305677100, -3.447495773837939900 ) ) ;
#191 = PERSON_AND_ORGANIZATION_ROLE ( 'creator' ) ;
#192 = APPROVAL_STATUS ( 'not_yet_approved' ) ;
#193 = CIRCLE ( 'NONE', #8, 12.69999999999999900 ) ;
#194 = DATE_AND_TIME ( #7, #169 ) ;
#195 = VERTEX_POINT ( 'NONE', #120 ) ;
#196 = APPROVAL_PERSON_ORGANIZATION ( #12, #230, #65 ) ;
#197 = CARTESIAN_POINT ( 'NONE',  ( 4.163789750828421200, -12.84861107305676600, -1.766513074447294100 ) ) ;
#198 = EDGE_CURVE ( 'NONE', #126, #195, #161, .T. ) ;
#199 = ADVANCED_FACE ( 'NONE', ( #50 ), #90, .T. ) ;
#200 = COORDINATED_UNIVERSAL_TIME_OFFSET ( 2, 0, .AHEAD. ) ;
#201 = DIRECTION ( 'NONE',  ( 1.000000000000000000, 0.0000000000000000000, 0.0000000000000000000 ) ) ;
#202 = CIRCLE ( 'NONE', #62, 12.69999999999999900 ) ;
#203 = DIRECTION ( 'NONE',  ( 1.000000000000000000, 0.0000000000000000000, 0.0000000000000000000 ) ) ;
#204 = CARTESIAN_POINT ( 'NONE',  ( -7.105427357601000300E-015, -1.065814103640150000E-014, -47.60999999999999900 ) ) ;
#205 = CARTESIAN_POINT ( 'NONE',  ( -3.469446951953614200E-015, -12.84861107305677300, -1.766513074447287200 ) ) ;
#206 = ORIENTED_EDGE ( 'NONE', *, *, #198, .F. ) ;
#207 = MECHANICAL_CONTEXT ( 'NONE', #36, 'mechanical' ) ;
#208 = CALENDAR_DATE ( 2019, 16, 1 ) ;
#209 = ORIENTED_EDGE ( 'NONE', *, *, #108, .F. ) ;
#210 = COORDINATED_UNIVERSAL_TIME_OFFSET ( 2, 0, .AHEAD. ) ;
#211 = ORIENTED_EDGE ( 'NONE', *, *, #145, .F. ) ;
#212 =( GEOMETRIC_REPRESENTATION_CONTEXT ( 3 ) GLOBAL_UNCERTAINTY_ASSIGNED_CONTEXT ( ( #68 ) ) GLOBAL_UNIT_ASSIGNED_CONTEXT ( ( #4, #218, #224 ) ) REPRESENTATION_CONTEXT ( 'NONE', 'WORKASPACE' ) );
#213 = ORIENTED_EDGE ( 'NONE', *, *, #157, .F. ) ;
#214 = CARTESIAN_POINT ( 'NONE',  ( -8.289233612811898400, 12.84861107305675400, -2.330302069308628700 ) ) ;
#215 = CC_DESIGN_DATE_AND_TIME_ASSIGNMENT ( #74, #43, ( #142 ) ) ;
#216 = ORGANIZATION ( 'UNSPECIFIED', 'UNSPECIFIED', '' ) ;
#217 = ORIENTED_EDGE ( 'NONE', *, *, #145, .T. ) ;
#218 =( NAMED_UNIT ( * ) PLANE_ANGLE_UNIT ( ) SI_UNIT ( $, .RADIAN. ) );
#219 = ADVANCED_FACE ( 'NONE', ( #170 ), #229, .T. ) ;
#220 = DIRECTION ( 'NONE',  ( 1.000000000000000000, 0.0000000000000000000, 0.0000000000000000000 ) ) ;
#221 = CARTESIAN_POINT ( 'NONE',  ( -3.469446951953614200E-015, 4.391497936215766500, 0.6037725382629878200 ) ) ;
#222 = CARTESIAN_POINT ( 'NONE',  ( -12.69999999999999900, 3.997792089092478900E-015, 3.000000000000000000 ) ) ;
#223 = ORIENTED_EDGE ( 'NONE', *, *, #48, .T. ) ;
#224 =( NAMED_UNIT ( * ) SI_UNIT ( $, .STERADIAN. ) SOLID_ANGLE_UNIT ( ) );
#225 = PERSON_AND_ORGANIZATION ( #163, #216 ) ;
#226 = PERSON_AND_ORGANIZATION_ROLE ( 'classification_officer' ) ;
#227 = LINE ( 'NONE', #146, #184 ) ;
#228 = EDGE_CURVE ( 'NONE', #175, #231, #132, .T. ) ;
#229 = CYLINDRICAL_SURFACE ( 'NONE', #71, 12.69999999999999900 ) ;
#230 = APPROVAL ( #85, 'UNSPECIFIED' ) ;
#231 = VERTEX_POINT ( 'NONE', #187 ) ;
#232 = CARTESIAN_POINT ( 'NONE',  ( 12.30034609137239000, -12.84861107305676600, -3.447495773837939000 ) ) ;
#233 = CARTESIAN_POINT ( 'NONE',  ( 7.765097160132749900E-015, 4.391497936215769100, 0.6037725382629812700 ) ) ;
#234 = DIRECTION ( 'NONE',  ( 1.000000000000000000, 0.0000000000000000000, 0.0000000000000000000 ) ) ;
#235 = DIRECTION ( 'NONE',  ( -0.0000000000000000000, -0.0000000000000000000, -1.000000000000000000 ) ) ;
ENDSEC;
END-ISO-10303-21;
