ISO-10303-21;
HEADER;
FILE_DESCRIPTION (( 'STEP AP203' ),
    '1' );
FILE_NAME ('112-1205E UVFS pl-cv 12.7 F-50.STEP',
    '2019-01-16T14:28:47',
    ( '' ),
    ( '' ),
    'SwSTEP 2.0',
    'SolidWorks 2017',
    '' );
FILE_SCHEMA (( 'CONFIG_CONTROL_DESIGN' ));
ENDSEC;

DATA;
#1 = PERSON_AND_ORGANIZATION ( #27, #150 ) ;
#2 = APPLICATION_PROTOCOL_DEFINITION ( 'international standard', 'config_control_design', 1994, #35 ) ;
#3 = AXIS2_PLACEMENT_3D ( 'NONE', #41, #207, #205 ) ;
#4 = APPROVAL_STATUS ( 'not_yet_approved' ) ;
#5 = PERSON_AND_ORGANIZATION_ROLE ( 'classification_officer' ) ;
#6 = APPLICATION_CONTEXT ( 'configuration controlled 3d designs of mechanical parts and assemblies' ) ;
#7 = COORDINATED_UNIVERSAL_TIME_OFFSET ( 2, 0, .AHEAD. ) ;
#8 = PERSON_AND_ORGANIZATION ( #27, #150 ) ;
#9 = CARTESIAN_POINT ( 'NONE',  ( -1.734723475976807100E-015, -4.781915125669435400, 1.400002714430773200 ) ) ;
#10 = DATE_AND_TIME ( #127, #20 ) ;
#11 = FACE_OUTER_BOUND ( 'NONE', #15, .T. ) ;
#12 = CIRCLE ( 'NONE', #149, 23.80000000000000100 ) ;
#13 = AXIS2_PLACEMENT_3D ( 'NONE', #146, #56, #142 ) ;
#14 = APPROVAL_DATE_TIME ( #157, #214 ) ;
#15 = EDGE_LOOP ( 'NONE', ( #71, #156, #59 ) ) ;
#16 = APPROVAL_ROLE ( '' ) ;
#17 = DIRECTION ( 'NONE',  ( 0.0000000000000000000, 0.0000000000000000000, 1.000000000000000000 ) ) ;
#18 = ORIENTED_EDGE ( 'NONE', *, *, #193, .T. ) ;
#19 = CARTESIAN_POINT ( 'NONE',  ( 12.69999999999999900, 2.442490654175340100E-015, -3.671661767547719900 ) ) ;
#20 = LOCAL_TIME ( 16, 28, 47.00000000000000000, #172 ) ;
#21 = CARTESIAN_POINT ( 'NONE',  ( 13.51895964964038100, 4.781915125669441700, -2.533174501145830000 ) ) ;
#22 = CIRCLE ( 'NONE', #96, 12.69999999999999900 ) ;
#23 = LOCAL_TIME ( 16, 28, 47.00000000000000000, #144 ) ;
#24 = PRODUCT_DEFINITION ( 'UNKNOWN', '', #163, #190 ) ;
#25 = CARTESIAN_POINT ( 'NONE',  ( -3.834342663596056200, -12.83566429660726800, -3.757901255986156200 ) ) ;
#26 = CYLINDRICAL_SURFACE ( 'NONE', #66, 12.69999999999999900 ) ;
#27 = PERSON ( 'UNSPECIFIED', 'UNSPECIFIED', 'UNSPECIFIED', ('UNSPECIFIED'), ('UNSPECIFIED'), ('UNSPECIFIED') ) ;
#28 = ORIENTED_EDGE ( 'NONE', *, *, #174, .T. ) ;
#29 = CALENDAR_DATE ( 2019, 16, 1 ) ;
#30 = APPROVAL_DATE_TIME ( #222, #167 ) ;
#31 = PERSON_AND_ORGANIZATION_ROLE ( 'creator' ) ;
#32 = ORIENTED_EDGE ( 'NONE', *, *, #174, .F. ) ;
#33 = EDGE_CURVE ( 'NONE', #61, #226, #22, .T. ) ;
#34 = APPROVAL_DATE_TIME ( #235, #94 ) ;
#35 = APPLICATION_CONTEXT ( 'configuration controlled 3d designs of mechanical parts and assemblies' ) ;
#36 = PRODUCT_DEFINITION_SHAPE ( 'NONE', 'NONE',  #24 ) ;
#37 = CARTESIAN_POINT ( 'NONE',  ( 5.329070518200749800E-015, 12.83566429660727500, -3.757901255986150000 ) ) ;
#38 = CARTESIAN_POINT ( 'NONE',  ( 4.821124113039225300, -4.781915125669434600, 1.400002714430772300 ) ) ;
#39 = CARTESIAN_POINT ( 'NONE',  ( 0.0000000000000000000, 26.11199999999999800, 1.899999999999999900 ) ) ;
#40 = PLANE ( 'NONE',  #53 ) ;
#41 = CARTESIAN_POINT ( 'NONE',  ( 4.996003610813200500E-016, 2.442490654175340100E-015, 1.900000000000000100 ) ) ;
#42 = APPROVAL_PERSON_ORGANIZATION ( #1, #167, #47 ) ;
#43 = EDGE_LOOP ( 'NONE', ( #160, #60 ) ) ;
#44 = CALENDAR_DATE ( 2019, 16, 1 ) ;
#45 = CC_DESIGN_SECURITY_CLASSIFICATION ( #104, ( #163 ) ) ;
#46 = FACE_OUTER_BOUND ( 'NONE', #79, .T. ) ;
#47 = APPROVAL_ROLE ( '' ) ;
#48 = CIRCLE ( 'NONE', #13, 12.69999999999999900 ) ;
#49 = CARTESIAN_POINT ( 'NONE',  ( 5.329070518200749800E-015, 7.105427357601000300E-015, -23.80000000000000100 ) ) ;
#50 =( NAMED_UNIT ( * ) PLANE_ANGLE_UNIT ( ) SI_UNIT ( $, .RADIAN. ) );
#51 = CARTESIAN_POINT ( 'NONE',  ( 13.51895964964037800, -4.781915125669433700, -2.533174501145834400 ) ) ;
#52 = FACE_OUTER_BOUND ( 'NONE', #43, .T. ) ;
#53 = AXIS2_PLACEMENT_3D ( 'NONE', #39, #227, #121 ) ;
#54 = ADVANCED_FACE ( 'NONE', ( #11 ), #208, .F. ) ;
#55 = VECTOR ( 'NONE', #122, 1000.000000000000000 ) ;
#56 = DIRECTION ( 'NONE',  ( 0.0000000000000000000, 0.0000000000000000000, 1.000000000000000000 ) ) ;
#57 = PERSON_AND_ORGANIZATION ( #27, #150 ) ;
#58 = CARTESIAN_POINT ( 'NONE',  ( -1.734723475976807100E-015, 4.781915125669439900, 1.400002714430777200 ) ) ;
#59 = ORIENTED_EDGE ( 'NONE', *, *, #119, .F. ) ;
#60 = ORIENTED_EDGE ( 'NONE', *, *, #141, .F. ) ;
#61 = VERTEX_POINT ( 'NONE', #198 ) ;
#62 = APPLICATION_PROTOCOL_DEFINITION ( 'international standard', 'config_control_design', 1994, #6 ) ;
#63 = PERSON_AND_ORGANIZATION_ROLE ( 'creator' ) ;
#64 = ORIENTED_EDGE ( 'NONE', *, *, #119, .T. ) ;
#65 = PERSON_AND_ORGANIZATION ( #27, #150 ) ;
#66 = AXIS2_PLACEMENT_3D ( 'NONE', #183, #103, #228 ) ;
#67 = DIRECTION ( 'NONE',  ( 0.0000000000000000000, 1.000000000000000000, 2.915501640297154800E-016 ) ) ;
#68 = ORIENTED_EDGE ( 'NONE', *, *, #158, .F. ) ;
#69 = ADVANCED_FACE ( 'NONE', ( #234 ), #211, .T. ) ;
#70 = CARTESIAN_POINT ( 'NONE',  ( 12.69999999999999900, 2.442490654175340100E-015, 1.900000000000000100 ) ) ;
#71 = ORIENTED_EDGE ( 'NONE', *, *, #203, .F. ) ;
#72 = AXIS2_PLACEMENT_3D ( 'NONE', #140, #200, #90 ) ;
#73 = DIRECTION ( 'NONE',  ( 1.000000000000000000, 0.0000000000000000000, 0.0000000000000000000 ) ) ;
#74 = CARTESIAN_POINT ( 'NONE',  ( -3.834342663596056700, 12.83566429660727300, -3.757901255986149500 ) ) ;
#75 = EDGE_LOOP ( 'NONE', ( #68, #215, #64, #28, #131 ) ) ;
#76 = UNCERTAINTY_MEASURE_WITH_UNIT (LENGTH_MEASURE( 1.000000000000000100E-005 ), #219, 'distance_accuracy_value', 'NONE');
#77 = PRODUCT ( '112-1205E UVFS pl-cv 12.7 F-50', '112-1205E UVFS pl-cv 12.7 F-50', '', ( #155 ) ) ;
#78 = APPROVAL_PERSON_ORGANIZATION ( #8, #94, #16 ) ;
#79 = EDGE_LOOP ( 'NONE', ( #110, #114, #196 ) ) ;
#80 = APPROVAL_STATUS ( 'not_yet_approved' ) ;
#81 = AXIS2_PLACEMENT_3D ( 'NONE', #176, #98, #178 ) ;
#82 =( NAMED_UNIT ( * ) SI_UNIT ( $, .STERADIAN. ) SOLID_ANGLE_UNIT ( ) );
#83 = DIRECTION ( 'NONE',  ( -0.0000000000000000000, -0.0000000000000000000, -1.000000000000000000 ) ) ;
#84 = CARTESIAN_POINT ( 'NONE',  ( 3.834342663596056200, 12.83566429660727500, -3.757901255986150400 ) ) ;
#85 = DIRECTION ( 'NONE',  ( 1.000000000000000000, 0.0000000000000000000, 0.0000000000000000000 ) ) ;
#86 = CC_DESIGN_APPROVAL ( #94, ( #24 ) ) ;
#87 = PERSON_AND_ORGANIZATION ( #27, #150 ) ;
#88 = DIRECTION ( 'NONE',  ( 0.0000000000000000000, 0.0000000000000000000, 1.000000000000000000 ) ) ;
#89 = COORDINATED_UNIVERSAL_TIME_OFFSET ( 2, 0, .AHEAD. ) ;
#90 = DIRECTION ( 'NONE',  ( 1.000000000000000000, 0.0000000000000000000, 0.0000000000000000000 ) ) ;
#91 = ADVANCED_FACE ( 'NONE', ( #202 ), #26, .T. ) ;
#92 = DIRECTION ( 'NONE',  ( 0.0000000000000000000, 0.0000000000000000000, 1.000000000000000000 ) ) ;
#93 = DIRECTION ( 'NONE',  ( 0.0000000000000000000, 0.0000000000000000000, 1.000000000000000000 ) ) ;
#94 = APPROVAL ( #4, 'UNSPECIFIED' ) ;
#95 = PERSON_AND_ORGANIZATION ( #27, #150 ) ;
#96 = AXIS2_PLACEMENT_3D ( 'NONE', #138, #92, #73 ) ;
#97 = LINE ( 'NONE', #229, #55 ) ;
#98 = DIRECTION ( 'NONE',  ( 0.0000000000000000000, 0.0000000000000000000, 1.000000000000000000 ) ) ;
#99 = PERSON_AND_ORGANIZATION_ROLE ( 'design_supplier' ) ;
#100 = CIRCLE ( 'NONE', #81, 12.69999999999999900 ) ;
#101 = CC_DESIGN_PERSON_AND_ORGANIZATION_ASSIGNMENT ( #95, #99, ( #163 ) ) ;
#102 = CARTESIAN_POINT ( 'NONE',  ( 9.450309087090664300, 4.781915125669441700, 0.05319753574137579100 ) ) ;
#103 = DIRECTION ( 'NONE',  ( 0.0000000000000000000, 0.0000000000000000000, 1.000000000000000000 ) ) ;
#104 = SECURITY_CLASSIFICATION ( '', '', #192 ) ;
#105 = VERTEX_POINT ( 'NONE', #118 ) ;
#106 = CARTESIAN_POINT ( 'NONE',  ( 7.516032042983088200, -12.83566429660726100, -4.829044092204374500 ) ) ;
#107 = CARTESIAN_POINT ( 'NONE',  ( -4.821124113039227900, -4.781915125669436300, 1.400002714430772100 ) ) ;
#108 = CARTESIAN_POINT ( 'NONE',  ( -12.69999999999999900, 3.997792089092478900E-015, -3.671661767547719900 ) ) ;
#109 = CARTESIAN_POINT ( 'NONE',  ( -10.75191646940867200, -12.83566429660726600, -6.886040844921618400 ) ) ;
#110 = ORIENTED_EDGE ( 'NONE', *, *, #33, .F. ) ;
#111 = PERSON_AND_ORGANIZATION ( #27, #150 ) ;
#112 = PERSON_AND_ORGANIZATION ( #27, #150 ) ;
#113 = APPROVAL_STATUS ( 'not_yet_approved' ) ;
#114 = ORIENTED_EDGE ( 'NONE', *, *, #203, .T. ) ;
#115 = CALENDAR_DATE ( 2019, 16, 1 ) ;
#116 = CARTESIAN_POINT ( 'NONE',  ( 4.996003610813200500E-016, 2.442490654175340100E-015, 1.900000000000000100 ) ) ;
#117 = CARTESIAN_POINT ( 'NONE',  ( 7.516032042983088200, 12.83566429660727700, -4.829044092204368300 ) ) ;
#118 = CARTESIAN_POINT ( 'NONE',  ( 5.329070518200749800E-015, -12.69999999999999000, -3.671661767547719400 ) ) ;
#119 = EDGE_CURVE ( 'NONE', #105, #231, #191, .T. ) ;
#120 = ADVANCED_FACE ( 'NONE', ( #52 ), #40, .T. ) ;
#121 = DIRECTION ( 'NONE',  ( 1.000000000000000000, 0.0000000000000000000, -0.0000000000000000000 ) ) ;
#122 = DIRECTION ( 'NONE',  ( 0.0000000000000000000, 0.0000000000000000000, 1.000000000000000000 ) ) ;
#123 = CARTESIAN_POINT ( 'NONE',  ( 0.0000000000000000000, -12.83566429660726600, -3.757901255986155800 ) ) ;
#124 = CARTESIAN_POINT ( 'NONE',  ( -9.450309087090666100, -4.781915125669435400, 0.05319753574136797800 ) ) ;
#125 = EDGE_LOOP ( 'NONE', ( #18, #148, #173, #209, #32 ) ) ;
#126 = CARTESIAN_POINT ( 'NONE',  ( -12.69999999999999900, 3.997792089092478900E-015, -3.671661767547719900 ) ) ;
#127 = CALENDAR_DATE ( 2019, 16, 1 ) ;
#128 = COORDINATED_UNIVERSAL_TIME_OFFSET ( 2, 0, .AHEAD. ) ;
#129 = VECTOR ( 'NONE', #93, 1000.000000000000000 ) ;
#130 = LOCAL_TIME ( 16, 28, 47.00000000000000000, #7 ) ;
#131 = ORIENTED_EDGE ( 'NONE', *, *, #225, .T. ) ;
#132 = CC_DESIGN_PERSON_AND_ORGANIZATION_ASSIGNMENT ( #112, #63, ( #24 ) ) ;
#133 = APPROVAL_ROLE ( '' ) ;
#134 = DATE_TIME_ROLE ( 'classification_date' ) ;
#135 = CARTESIAN_POINT ( 'NONE',  ( 0.0000000000000000000, 0.0000000000000000000, 0.0000000000000000000 ) ) ;
#136 = CC_DESIGN_PERSON_AND_ORGANIZATION_ASSIGNMENT ( #87, #5, ( #104 ) ) ;
#137 = SHAPE_DEFINITION_REPRESENTATION ( #36, #147 ) ;
#138 = CARTESIAN_POINT ( 'NONE',  ( 4.996003610813200500E-016, 2.442490654175340100E-015, -3.671661767547719900 ) ) ;
#139 = CARTESIAN_POINT ( 'NONE',  ( 5.329070518200749800E-015, -4.781915125669433700, 1.400002714430772300 ) ) ;
#140 = CARTESIAN_POINT ( 'NONE',  ( 4.996003610813200500E-016, 2.442490654175340100E-015, -3.671661767547719900 ) ) ;
#141 = EDGE_CURVE ( 'NONE', #169, #153, #188, .T. ) ;
#142 = DIRECTION ( 'NONE',  ( 1.000000000000000000, 0.0000000000000000000, 0.0000000000000000000 ) ) ;
#143 = CIRCLE ( 'NONE', #152, 12.69999999999999900 ) ;
#144 = COORDINATED_UNIVERSAL_TIME_OFFSET ( 2, 0, .AHEAD. ) ;
#145 = CARTESIAN_POINT ( 'NONE',  ( -10.75191646940867200, 12.83566429660727500, -6.886040844921611300 ) ) ;
#146 = CARTESIAN_POINT ( 'NONE',  ( 4.996003610813200500E-016, 2.442490654175340100E-015, -3.671661767547719900 ) ) ;
#147 = ADVANCED_BREP_SHAPE_REPRESENTATION ( '112-1205E UVFS pl-cv 12.7 F-50', ( #187, #233 ), #189 ) ;
#148 = ORIENTED_EDGE ( 'NONE', *, *, #33, .T. ) ;
#149 = AXIS2_PLACEMENT_3D ( 'NONE', #49, #177, #67 ) ;
#150 = ORGANIZATION ( 'UNSPECIFIED', 'UNSPECIFIED', '' ) ;
#151 = CC_DESIGN_DATE_AND_TIME_ASSIGNMENT ( #10, #134, ( #104 ) ) ;
#152 = AXIS2_PLACEMENT_3D ( 'NONE', #116, #83, #195 ) ;
#153 = VERTEX_POINT ( 'NONE', #70 ) ;
#154 = DIRECTION ( 'NONE',  ( 1.000000000000000000, 0.0000000000000000000, 0.0000000000000000000 ) ) ;
#155 = MECHANICAL_CONTEXT ( 'NONE', #35, 'mechanical' ) ;
#156 = ORIENTED_EDGE ( 'NONE', *, *, #193, .F. ) ;
#157 = DATE_AND_TIME ( #212, #23 ) ;
#158 = EDGE_CURVE ( 'NONE', #226, #169, #182, .T. ) ;
#159 =( BOUNDED_SURFACE ( )  B_SPLINE_SURFACE ( 3, 3, ( 
 ( #145, #168, #74, #165 ),
 ( #184, #166, #186, #58 ),
 ( #230, #124, #107, #9 ),
 ( #109, #185, #25, #123 ) ),
 .UNSPECIFIED., .F., .F., .F. ) 
 B_SPLINE_SURFACE_WITH_KNOTS ( ( 4, 4 ),
 ( 4, 4 ),
 ( 0.0000000000000000000, 1.000000000000000000 ),
 ( 0.0000000000000000000, 1.000000000000000000 ),
 .UNSPECIFIED. ) 
 GEOMETRIC_REPRESENTATION_ITEM ( )  RATIONAL_B_SPLINE_SURFACE ( (
 ( 1.000000000000000000, 0.9734585911933327800, 0.9734585911933327800, 1.000000000000000000),
 ( 0.8947366594961861900, 0.8709890880421861100, 0.8709890880421861100, 0.8947366594961861900),
 ( 0.8947366594961861900, 0.8709890880421861100, 0.8709890880421861100, 0.8947366594961861900),
 ( 1.000000000000000000, 0.9734585911933327800, 0.9734585911933327800, 1.000000000000000000) ) ) 
 REPRESENTATION_ITEM ( '' )  SURFACE ( )  );
#160 = ORIENTED_EDGE ( 'NONE', *, *, #225, .F. ) ;
#161 = CARTESIAN_POINT ( 'NONE',  ( 9.450309087090664300, -4.781915125669434600, 0.05319753574137190500 ) ) ;
#162 = CARTESIAN_POINT ( 'NONE',  ( 10.75191646940866800, 12.83566429660727700, -6.886040844921602400 ) ) ;
#163 = PRODUCT_DEFINITION_FORMATION_WITH_SPECIFIED_SOURCE ( 'ANY', '', #77, .NOT_KNOWN. ) ;
#164 = LOCAL_TIME ( 16, 28, 47.00000000000000000, #128 ) ;
#165 = CARTESIAN_POINT ( 'NONE',  ( 0.0000000000000000000, 12.83566429660727500, -3.757901255986147800 ) ) ;
#166 = CARTESIAN_POINT ( 'NONE',  ( -9.450309087090666100, 4.781915125669439900, 0.05319753574137189900 ) ) ;
#167 = APPROVAL ( #80, 'UNSPECIFIED' ) ;
#168 = CARTESIAN_POINT ( 'NONE',  ( -7.516032042983089100, 12.83566429660727300, -4.829044092204371800 ) ) ;
#169 = VERTEX_POINT ( 'NONE', #204 ) ;
#170 = LOCAL_TIME ( 16, 28, 47.00000000000000000, #89 ) ;
#171 = CC_DESIGN_PERSON_AND_ORGANIZATION_ASSIGNMENT ( #57, #217, ( #77 ) ) ;
#172 = COORDINATED_UNIVERSAL_TIME_OFFSET ( 2, 0, .AHEAD. ) ;
#173 = ORIENTED_EDGE ( 'NONE', *, *, #158, .T. ) ;
#174 = EDGE_CURVE ( 'NONE', #231, #153, #97, .T. ) ;
#175 = CLOSED_SHELL ( 'NONE', ( #201, #69, #54, #91, #120 ) ) ;
#176 = CARTESIAN_POINT ( 'NONE',  ( 4.996003610813200500E-016, 2.442490654175340100E-015, -3.671661767547719900 ) ) ;
#177 = DIRECTION ( 'NONE',  ( 1.000000000000000000, 0.0000000000000000000, 0.0000000000000000000 ) ) ;
#178 = DIRECTION ( 'NONE',  ( 1.000000000000000000, 0.0000000000000000000, 0.0000000000000000000 ) ) ;
#179 = AXIS2_PLACEMENT_3D ( 'NONE', #197, #88, #85 ) ;
#180 = CARTESIAN_POINT ( 'NONE',  ( 3.834342663596056200, -12.83566429660726300, -3.757901255986156700 ) ) ;
#181 = CARTESIAN_POINT ( 'NONE',  ( 10.75191646940866800, -12.83566429660726400, -6.886040844921610400 ) ) ;
#182 = LINE ( 'NONE', #108, #129 ) ;
#183 = CARTESIAN_POINT ( 'NONE',  ( 4.996003610813200500E-016, 2.442490654175340100E-015, -3.671661767547719900 ) ) ;
#184 = CARTESIAN_POINT ( 'NONE',  ( -13.51895964964038800, 4.781915125669439900, -2.533174501145841500 ) ) ;
#185 = CARTESIAN_POINT ( 'NONE',  ( -7.516032042983089100, -12.83566429660726800, -4.829044092204378900 ) ) ;
#186 = CARTESIAN_POINT ( 'NONE',  ( -4.821124113039227900, 4.781915125669438100, 1.400002714430775600 ) ) ;
#187 = MANIFOLD_SOLID_BREP ( 'Imported1', #175 ) ;
#188 = CIRCLE ( 'NONE', #3, 12.69999999999999900 ) ;
#189 =( GEOMETRIC_REPRESENTATION_CONTEXT ( 3 ) GLOBAL_UNCERTAINTY_ASSIGNED_CONTEXT ( ( #76 ) ) GLOBAL_UNIT_ASSIGNED_CONTEXT ( ( #219, #50, #82 ) ) REPRESENTATION_CONTEXT ( 'NONE', 'WORKASPACE' ) );
#190 = DESIGN_CONTEXT ( 'detailed design', #6, 'design' ) ;
#191 = CIRCLE ( 'NONE', #72, 12.69999999999999900 ) ;
#192 = SECURITY_CLASSIFICATION_LEVEL ( 'unclassified' ) ;
#193 = EDGE_CURVE ( 'NONE', #231, #61, #48, .T. ) ;
#194 = APPROVAL_PERSON_ORGANIZATION ( #65, #214, #133 ) ;
#195 = DIRECTION ( 'NONE',  ( 1.000000000000000000, 0.0000000000000000000, 0.0000000000000000000 ) ) ;
#196 = ORIENTED_EDGE ( 'NONE', *, *, #213, .F. ) ;
#197 = CARTESIAN_POINT ( 'NONE',  ( 4.996003610813200500E-016, 2.442490654175340100E-015, -3.671661767547719900 ) ) ;
#198 = CARTESIAN_POINT ( 'NONE',  ( 5.329070518200749800E-015, 12.69999999999999900, -3.671661767547721200 ) ) ;
#199 = CC_DESIGN_DATE_AND_TIME_ASSIGNMENT ( #216, #218, ( #24 ) ) ;
#200 = DIRECTION ( 'NONE',  ( 0.0000000000000000000, 0.0000000000000000000, 1.000000000000000000 ) ) ;
#201 = ADVANCED_FACE ( 'NONE', ( #46 ), #159, .F. ) ;
#202 = FACE_OUTER_BOUND ( 'NONE', #75, .T. ) ;
#203 = EDGE_CURVE ( 'NONE', #61, #105, #12, .T. ) ;
#204 = CARTESIAN_POINT ( 'NONE',  ( -12.69999999999999900, 3.997792089092478900E-015, 1.900000000000000100 ) ) ;
#205 = DIRECTION ( 'NONE',  ( 1.000000000000000000, 0.0000000000000000000, 0.0000000000000000000 ) ) ;
#206 = CC_DESIGN_APPROVAL ( #214, ( #163 ) ) ;
#207 = DIRECTION ( 'NONE',  ( -0.0000000000000000000, -0.0000000000000000000, -1.000000000000000000 ) ) ;
#208 =( BOUNDED_SURFACE ( )  B_SPLINE_SURFACE ( 3, 3, ( 
 ( #37, #84, #117, #162 ),
 ( #220, #223, #102, #21 ),
 ( #139, #38, #161, #51 ),
 ( #224, #180, #106, #181 ) ),
 .UNSPECIFIED., .F., .F., .F. ) 
 B_SPLINE_SURFACE_WITH_KNOTS ( ( 4, 4 ),
 ( 4, 4 ),
 ( 0.0000000000000000000, 1.000000000000000000 ),
 ( 0.0000000000000000000, 1.000000000000000000 ),
 .UNSPECIFIED. ) 
 GEOMETRIC_REPRESENTATION_ITEM ( )  RATIONAL_B_SPLINE_SURFACE ( (
 ( 1.000000000000000000, 0.9734585911933328900, 0.9734585911933328900, 1.000000000000000000),
 ( 0.8947366594961861900, 0.8709890880421862200, 0.8709890880421862200, 0.8947366594961861900),
 ( 0.8947366594961861900, 0.8709890880421862200, 0.8709890880421862200, 0.8947366594961861900),
 ( 1.000000000000000000, 0.9734585911933328900, 0.9734585911933328900, 1.000000000000000000) ) ) 
 REPRESENTATION_ITEM ( '' )  SURFACE ( )  );
#209 = ORIENTED_EDGE ( 'NONE', *, *, #141, .T. ) ;
#210 = CC_DESIGN_APPROVAL ( #167, ( #104 ) ) ;
#211 = CYLINDRICAL_SURFACE ( 'NONE', #179, 12.69999999999999900 ) ;
#212 = CALENDAR_DATE ( 2019, 16, 1 ) ;
#213 = EDGE_CURVE ( 'NONE', #226, #105, #100, .T. ) ;
#214 = APPROVAL ( #113, 'UNSPECIFIED' ) ;
#215 = ORIENTED_EDGE ( 'NONE', *, *, #213, .T. ) ;
#216 = DATE_AND_TIME ( #29, #164 ) ;
#217 = PERSON_AND_ORGANIZATION_ROLE ( 'design_owner' ) ;
#218 = DATE_TIME_ROLE ( 'creation_date' ) ;
#219 =( LENGTH_UNIT ( ) NAMED_UNIT ( * ) SI_UNIT ( .MILLI., .METRE. ) );
#220 = CARTESIAN_POINT ( 'NONE',  ( 5.329070518200749800E-015, 4.781915125669439900, 1.400002714430776700 ) ) ;
#221 = PRODUCT_RELATED_PRODUCT_CATEGORY ( 'detail', '', ( #77 ) ) ;
#222 = DATE_AND_TIME ( #115, #130 ) ;
#223 = CARTESIAN_POINT ( 'NONE',  ( 4.821124113039225300, 4.781915125669441700, 1.400002714430776700 ) ) ;
#224 = CARTESIAN_POINT ( 'NONE',  ( 5.329070518200749800E-015, -12.83566429660726600, -3.757901255986157100 ) ) ;
#225 = EDGE_CURVE ( 'NONE', #153, #169, #143, .T. ) ;
#226 = VERTEX_POINT ( 'NONE', #126 ) ;
#227 = DIRECTION ( 'NONE',  ( 0.0000000000000000000, 0.0000000000000000000, 1.000000000000000000 ) ) ;
#228 = DIRECTION ( 'NONE',  ( 1.000000000000000000, 0.0000000000000000000, 0.0000000000000000000 ) ) ;
#229 = CARTESIAN_POINT ( 'NONE',  ( 12.69999999999999900, 2.442490654175340100E-015, -3.671661767547719900 ) ) ;
#230 = CARTESIAN_POINT ( 'NONE',  ( -13.51895964964038700, -4.781915125669433700, -2.533174501145844200 ) ) ;
#231 = VERTEX_POINT ( 'NONE', #19 ) ;
#232 = CC_DESIGN_PERSON_AND_ORGANIZATION_ASSIGNMENT ( #111, #31, ( #163 ) ) ;
#233 = AXIS2_PLACEMENT_3D ( 'NONE', #135, #17, #154 ) ;
#234 = FACE_OUTER_BOUND ( 'NONE', #125, .T. ) ;
#235 = DATE_AND_TIME ( #44, #170 ) ;
ENDSEC;
END-ISO-10303-21;
