ISO-10303-21;
HEADER;
FILE_DESCRIPTION (( 'STEP AP203' ),
    '1' );
FILE_NAME ('112-1127E UVFS pl-cv 12.7 F-250.STEP',
    '2019-01-16T13:59:13',
    ( '' ),
    ( '' ),
    'SwSTEP 2.0',
    'SolidWorks 2017',
    '' );
FILE_SCHEMA (( 'CONFIG_CONTROL_DESIGN' ));
ENDSEC;

DATA;
#1 = VERTEX_POINT ( 'NONE', #188 ) ;
#2 = DIRECTION ( 'NONE',  ( -0.0000000000000000000, -0.0000000000000000000, -1.000000000000000000 ) ) ;
#3 = COORDINATED_UNIVERSAL_TIME_OFFSET ( 2, 0, .AHEAD. ) ;
#4 = EDGE_LOOP ( 'NONE', ( #60, #102, #26 ) ) ;
#5 = CARTESIAN_POINT ( 'NONE',  ( 2.498001805406600200E-016, 1.221245327087670000E-015, -0.1695145150849619900 ) ) ;
#6 = DIRECTION ( 'NONE',  ( 1.000000000000000000, 0.0000000000000000000, 0.0000000000000000000 ) ) ;
#7 = CARTESIAN_POINT ( 'NONE',  ( 0.0000000000000000000, 13.15799999999999900, 2.799999999999999800 ) ) ;
#8 = CC_DESIGN_APPROVAL ( #133, ( #13 ) ) ;
#9 = CARTESIAN_POINT ( 'NONE',  ( -2.842170943040400100E-014, -2.144127096766979900, 0.05792508698357105200 ) ) ;
#10 = CARTESIAN_POINT ( 'NONE',  ( -4.254285904399757200, -6.426126309198142600, -0.2307213572956148800 ) ) ;
#11 = LINE ( 'NONE', #136, #58 ) ;
#12 = DIRECTION ( 'NONE',  ( 0.0000000000000000000, 0.0000000000000000000, 1.000000000000000000 ) ) ;
#13 = PRODUCT_DEFINITION_FORMATION_WITH_SPECIFIED_SOURCE ( 'ANY', '', #130, .NOT_KNOWN. ) ;
#14 = CIRCLE ( 'NONE', #203, 6.349999999999999600 ) ;
#15 = CARTESIAN_POINT ( 'NONE',  ( 2.131671099947511000, 2.144127096766984800, 0.05792508698357071900 ) ) ;
#16 = MECHANICAL_CONTEXT ( 'NONE', #37, 'mechanical' ) ;
#17 = ORIENTED_EDGE ( 'NONE', *, *, #134, .F. ) ;
#18 = DIRECTION ( 'NONE',  ( -0.0000000000000000000, -0.0000000000000000000, -1.000000000000000000 ) ) ;
#19 = DATE_AND_TIME ( #135, #226 ) ;
#20 = CIRCLE ( 'NONE', #168, 6.349999999999999600 ) ;
#21 = EDGE_CURVE ( 'NONE', #1, #39, #62, .T. ) ;
#22 = CC_DESIGN_APPROVAL ( #54, ( #177 ) ) ;
#23 = PERSON_AND_ORGANIZATION ( #64, #76 ) ;
#24 = CIRCLE ( 'NONE', #124, 6.349999999999999600 ) ;
#25 = PERSON_AND_ORGANIZATION ( #64, #76 ) ;
#26 = ORIENTED_EDGE ( 'NONE', *, *, #110, .F. ) ;
#27 = AXIS2_PLACEMENT_3D ( 'NONE', #231, #12, #173 ) ;
#28 = PLANE ( 'NONE',  #40 ) ;
#29 = CARTESIAN_POINT ( 'NONE',  ( 2.131671099947511000, -2.144127096766979900, 0.05792508698357104500 ) ) ;
#30 = CC_DESIGN_SECURITY_CLASSIFICATION ( #177, ( #13 ) ) ;
#31 = CARTESIAN_POINT ( 'NONE',  ( -6.391172448208856800, 2.144127096766985200, -0.1137127071973337200 ) ) ;
#32 = CARTESIAN_POINT ( 'NONE',  ( -5.811323644522303800E-014, -6.426126309198142600, -0.1736062782793975600 ) ) ;
#33 = DIRECTION ( 'NONE',  ( 0.0000000000000000000, 0.0000000000000000000, 1.000000000000000000 ) ) ;
#34 = FACE_OUTER_BOUND ( 'NONE', #4, .T. ) ;
#35 = APPROVAL_STATUS ( 'not_yet_approved' ) ;
#36 = CALENDAR_DATE ( 2019, 16, 1 ) ;
#37 = APPLICATION_CONTEXT ( 'configuration controlled 3d designs of mechanical parts and assemblies' ) ;
#38 = APPROVAL_PERSON_ORGANIZATION ( #114, #89, #235 ) ;
#39 = VERTEX_POINT ( 'NONE', #148 ) ;
#40 = AXIS2_PLACEMENT_3D ( 'NONE', #7, #33, #214 ) ;
#41 = PERSON_AND_ORGANIZATION ( #64, #76 ) ;
#42 = EDGE_CURVE ( 'NONE', #143, #1, #20, .T. ) ;
#43 = DATE_AND_TIME ( #36, #152 ) ;
#44 = COORDINATED_UNIVERSAL_TIME_OFFSET ( 2, 0, .AHEAD. ) ;
#45 = VERTEX_POINT ( 'NONE', #172 ) ;
#46 = DIRECTION ( 'NONE',  ( 1.000000000000000000, 0.0000000000000000000, 0.0000000000000000000 ) ) ;
#47 = EDGE_LOOP ( 'NONE', ( #105, #90, #232 ) ) ;
#48 =( BOUNDED_SURFACE ( )  B_SPLINE_SURFACE ( 3, 3, ( 
 ( #227, #99, #95, #192 ),
 ( #80, #15, #207, #113 ),
 ( #9, #29, #82, #208 ),
 ( #228, #115, #132, #176 ) ),
 .UNSPECIFIED., .F., .F., .F. ) 
 B_SPLINE_SURFACE_WITH_KNOTS ( ( 4, 4 ),
 ( 4, 4 ),
 ( 0.0000000000000000000, 1.000000000000000000 ),
 ( 0.0000000000000000000, 1.000000000000000000 ),
 .UNSPECIFIED. ) 
 GEOMETRIC_REPRESENTATION_ITEM ( )  RATIONAL_B_SPLINE_SURFACE ( (
 ( 1.000000000000000000, 0.9997597249450439500, 0.9997597249450439500, 1.000000000000000000),
 ( 0.9990275792400190600, 0.9987875378335145900, 0.9987875378335145900, 0.9990275792400190600),
 ( 0.9990275792400190600, 0.9987875378335145900, 0.9987875378335145900, 0.9990275792400190600),
 ( 1.000000000000000000, 0.9997597249450439500, 0.9997597249450439500, 1.000000000000000000) ) ) 
 REPRESENTATION_ITEM ( '' )  SURFACE ( )  );
#49 = CARTESIAN_POINT ( 'NONE',  ( -2.131671099947599000, 2.144127096766984800, 0.05792508698356499400 ) ) ;
#50 = CARTESIAN_POINT ( 'NONE',  ( -6.378745653893421500, -6.426126309198142600, -0.3449103453417867700 ) ) ;
#51 = CALENDAR_DATE ( 2019, 16, 1 ) ;
#52 = CARTESIAN_POINT ( 'NONE',  ( 6.349999999999999600, 1.221245327087670000E-015, 2.799999999999999800 ) ) ;
#53 = SECURITY_CLASSIFICATION_LEVEL ( 'unclassified' ) ;
#54 = APPROVAL ( #35, 'UNSPECIFIED' ) ;
#55 = APPROVAL_DATE_TIME ( #209, #54 ) ;
#56 = ORIENTED_EDGE ( 'NONE', *, *, #79, .T. ) ;
#57 = ORIENTED_EDGE ( 'NONE', *, *, #103, .F. ) ;
#58 = VECTOR ( 'NONE', #157, 1000.000000000000000 ) ;
#59 = CIRCLE ( 'NONE', #230, 6.349999999999999600 ) ;
#60 = ORIENTED_EDGE ( 'NONE', *, *, #79, .F. ) ;
#61 = CARTESIAN_POINT ( 'NONE',  ( -2.127526345832157600, 6.426126309198148000, -0.1736062782793981500 ) ) ;
#62 = CIRCLE ( 'NONE', #146, 119.0200000000000000 ) ;
#63 = PRODUCT_RELATED_PRODUCT_CATEGORY ( 'detail', '', ( #130 ) ) ;
#64 = PERSON ( 'UNSPECIFIED', 'UNSPECIFIED', 'UNSPECIFIED', ('UNSPECIFIED'), ('UNSPECIFIED'), ('UNSPECIFIED') ) ;
#65 = LINE ( 'NONE', #98, #163 ) ;
#66 =( LENGTH_UNIT ( ) NAMED_UNIT ( * ) SI_UNIT ( .MILLI., .METRE. ) );
#67 = EDGE_CURVE ( 'NONE', #39, #143, #14, .T. ) ;
#68 = APPLICATION_PROTOCOL_DEFINITION ( 'international standard', 'config_control_design', 1994, #37 ) ;
#69 = DESIGN_CONTEXT ( 'detailed design', #219, 'design' ) ;
#70 = DIRECTION ( 'NONE',  ( 0.0000000000000000000, 0.0000000000000000000, 1.000000000000000000 ) ) ;
#71 = LOCAL_TIME ( 15, 59, 13.00000000000000000, #3 ) ;
#72 = APPROVAL_ROLE ( '' ) ;
#73 = LOCAL_TIME ( 15, 59, 13.00000000000000000, #75 ) ;
#74 = EDGE_CURVE ( 'NONE', #197, #45, #59, .T. ) ;
#75 = COORDINATED_UNIVERSAL_TIME_OFFSET ( 2, 0, .AHEAD. ) ;
#76 = ORGANIZATION ( 'UNSPECIFIED', 'UNSPECIFIED', '' ) ;
#77 = EDGE_LOOP ( 'NONE', ( #57, #212, #85, #93, #159 ) ) ;
#78 = CARTESIAN_POINT ( 'NONE',  ( -6.378745653893421500, 6.426126309198148000, -0.3449103453417867700 ) ) ;
#79 = EDGE_CURVE ( 'NONE', #1, #154, #24, .T. ) ;
#80 = CARTESIAN_POINT ( 'NONE',  ( -2.842170943040400100E-014, 2.144127096766985200, 0.05792508698357071900 ) ) ;
#81 = CYLINDRICAL_SURFACE ( 'NONE', #218, 6.349999999999999600 ) ;
#82 = CARTESIAN_POINT ( 'NONE',  ( 4.262573918809017900, -2.144127096766979900, 0.0006987388593397442900 ) ) ;
#83 = CC_DESIGN_APPROVAL ( #89, ( #96 ) ) ;
#84 = CARTESIAN_POINT ( 'NONE',  ( -4.262573918809107600, 2.144127096766984800, 0.0006987388593204863700 ) ) ;
#85 = ORIENTED_EDGE ( 'NONE', *, *, #67, .T. ) ;
#86 = PERSON_AND_ORGANIZATION_ROLE ( 'creator' ) ;
#87 = DIRECTION ( 'NONE',  ( 1.000000000000000000, 0.0000000000000000000, 0.0000000000000000000 ) ) ;
#88 = DIRECTION ( 'NONE',  ( 0.0000000000000000000, 0.0000000000000000000, 1.000000000000000000 ) ) ;
#89 = APPROVAL ( #138, 'UNSPECIFIED' ) ;
#90 = ORIENTED_EDGE ( 'NONE', *, *, #42, .F. ) ;
#91 =( BOUNDED_SURFACE ( )  B_SPLINE_SURFACE ( 3, 3, ( 
 ( #78, #92, #61, #153 ),
 ( #31, #84, #49, #97 ),
 ( #131, #211, #116, #194 ),
 ( #50, #10, #178, #32 ) ),
 .UNSPECIFIED., .F., .F., .F. ) 
 B_SPLINE_SURFACE_WITH_KNOTS ( ( 4, 4 ),
 ( 4, 4 ),
 ( 0.0000000000000000000, 1.000000000000000000 ),
 ( 0.0000000000000000000, 1.000000000000000000 ),
 .UNSPECIFIED. ) 
 GEOMETRIC_REPRESENTATION_ITEM ( )  RATIONAL_B_SPLINE_SURFACE ( (
 ( 1.000000000000000000, 0.9997597249450439500, 0.9997597249450439500, 1.000000000000000000),
 ( 0.9990275792400190600, 0.9987875378335145900, 0.9987875378335145900, 0.9990275792400190600),
 ( 0.9990275792400190600, 0.9987875378335145900, 0.9987875378335145900, 0.9990275792400190600),
 ( 1.000000000000000000, 0.9997597249450439500, 0.9997597249450439500, 1.000000000000000000) ) ) 
 REPRESENTATION_ITEM ( '' )  SURFACE ( )  );
#92 = CARTESIAN_POINT ( 'NONE',  ( -4.254285904399757200, 6.426126309198148000, -0.2307213572956148800 ) ) ;
#93 = ORIENTED_EDGE ( 'NONE', *, *, #134, .T. ) ;
#94 = CC_DESIGN_DATE_AND_TIME_ASSIGNMENT ( #129, #137, ( #96 ) ) ;
#95 = CARTESIAN_POINT ( 'NONE',  ( 4.254285904399669200, 6.426126309198148000, -0.2307213572955959800 ) ) ;
#96 = PRODUCT_DEFINITION ( 'UNKNOWN', '', #13, #69 ) ;
#97 = CARTESIAN_POINT ( 'NONE',  ( -5.898059818321144100E-014, 2.144127096766985200, 0.05792508698356554900 ) ) ;
#98 = CARTESIAN_POINT ( 'NONE',  ( 6.349999999999999600, 1.221245327087670000E-015, -0.1695145150849619900 ) ) ;
#99 = CARTESIAN_POINT ( 'NONE',  ( 2.127526345832069700, 6.426126309198148000, -0.1736062782793923700 ) ) ;
#100 = ADVANCED_FACE ( 'NONE', ( #34 ), #91, .F. ) ;
#101 = APPROVAL_STATUS ( 'not_yet_approved' ) ;
#102 = ORIENTED_EDGE ( 'NONE', *, *, #21, .T. ) ;
#103 = EDGE_CURVE ( 'NONE', #154, #45, #11, .T. ) ;
#104 = APPLICATION_PROTOCOL_DEFINITION ( 'international standard', 'config_control_design', 1994, #219 ) ;
#105 = ORIENTED_EDGE ( 'NONE', *, *, #21, .F. ) ;
#106 = ADVANCED_BREP_SHAPE_REPRESENTATION ( '112-1127E UVFS pl-cv 12.7 F-250', ( #151, #142 ), #118 ) ;
#107 = CC_DESIGN_PERSON_AND_ORGANIZATION_ASSIGNMENT ( #23, #121, ( #177 ) ) ;
#108 = LOCAL_TIME ( 15, 59, 13.00000000000000000, #44 ) ;
#109 = ORIENTED_EDGE ( 'NONE', *, *, #74, .F. ) ;
#110 = EDGE_CURVE ( 'NONE', #154, #39, #182, .T. ) ;
#111 = FACE_OUTER_BOUND ( 'NONE', #77, .T. ) ;
#112 = CARTESIAN_POINT ( 'NONE',  ( 2.498001805406600200E-016, 1.221245327087670000E-015, -0.1695145150849619900 ) ) ;
#113 = CARTESIAN_POINT ( 'NONE',  ( 6.391172448208768800, 2.144127096766985200, -0.1137127071973141200 ) ) ;
#114 = PERSON_AND_ORGANIZATION ( #64, #76 ) ;
#115 = CARTESIAN_POINT ( 'NONE',  ( 2.127526345832069700, -6.426126309198142600, -0.1736062782793923700 ) ) ;
#116 = CARTESIAN_POINT ( 'NONE',  ( -2.131671099947599000, -2.144127096766979900, 0.05792508698356531300 ) ) ;
#117 = CARTESIAN_POINT ( 'NONE',  ( 6.349999999999999600, 1.221245327087670000E-015, -0.1695145150849619900 ) ) ;
#118 =( GEOMETRIC_REPRESENTATION_CONTEXT ( 3 ) GLOBAL_UNCERTAINTY_ASSIGNED_CONTEXT ( ( #202 ) ) GLOBAL_UNIT_ASSIGNED_CONTEXT ( ( #66, #183, #120 ) ) REPRESENTATION_CONTEXT ( 'NONE', 'WORKASPACE' ) );
#119 = DIRECTION ( 'NONE',  ( 1.000000000000000000, 0.0000000000000000000, 0.0000000000000000000 ) ) ;
#120 =( NAMED_UNIT ( * ) SI_UNIT ( $, .STERADIAN. ) SOLID_ANGLE_UNIT ( ) );
#121 = PERSON_AND_ORGANIZATION_ROLE ( 'classification_officer' ) ;
#122 = EDGE_LOOP ( 'NONE', ( #165, #56, #141, #149, #17 ) ) ;
#123 = ADVANCED_FACE ( 'NONE', ( #196 ), #28, .T. ) ;
#124 = AXIS2_PLACEMENT_3D ( 'NONE', #112, #229, #175 ) ;
#125 = CIRCLE ( 'NONE', #201, 6.349999999999999600 ) ;
#126 = CC_DESIGN_DATE_AND_TIME_ASSIGNMENT ( #43, #234, ( #177 ) ) ;
#127 = EDGE_LOOP ( 'NONE', ( #109, #191 ) ) ;
#128 = CARTESIAN_POINT ( 'NONE',  ( -2.842170943040400100E-014, 7.105427357601000300E-015, -119.0200000000000000 ) ) ;
#129 = DATE_AND_TIME ( #51, #108 ) ;
#130 = PRODUCT ( '112-1127E UVFS pl-cv 12.7 F-250', '112-1127E UVFS pl-cv 12.7 F-250', '', ( #16 ) ) ;
#131 = CARTESIAN_POINT ( 'NONE',  ( -6.391172448208856800, -2.144127096766979900, -0.1137127071973334000 ) ) ;
#132 = CARTESIAN_POINT ( 'NONE',  ( 4.254285904399669200, -6.426126309198142600, -0.2307213572955959800 ) ) ;
#133 = APPROVAL ( #101, 'UNSPECIFIED' ) ;
#134 = EDGE_CURVE ( 'NONE', #143, #197, #65, .T. ) ;
#135 = CALENDAR_DATE ( 2019, 16, 1 ) ;
#136 = CARTESIAN_POINT ( 'NONE',  ( -6.349999999999999600, 1.998896044546239400E-015, -0.1695145150849619900 ) ) ;
#137 = DATE_TIME_ROLE ( 'creation_date' ) ;
#138 = APPROVAL_STATUS ( 'not_yet_approved' ) ;
#139 = CALENDAR_DATE ( 2019, 16, 1 ) ;
#140 = FACE_OUTER_BOUND ( 'NONE', #122, .T. ) ;
#141 = ORIENTED_EDGE ( 'NONE', *, *, #103, .T. ) ;
#142 = AXIS2_PLACEMENT_3D ( 'NONE', #161, #88, #217 ) ;
#143 = VERTEX_POINT ( 'NONE', #117 ) ;
#144 = CC_DESIGN_PERSON_AND_ORGANIZATION_ASSIGNMENT ( #167, #158, ( #13 ) ) ;
#145 = FACE_OUTER_BOUND ( 'NONE', #47, .T. ) ;
#146 = AXIS2_PLACEMENT_3D ( 'NONE', #128, #147, #170 ) ;
#147 = DIRECTION ( 'NONE',  ( 1.000000000000000000, 0.0000000000000000000, 0.0000000000000000000 ) ) ;
#148 = CARTESIAN_POINT ( 'NONE',  ( -2.842170943040400100E-014, -6.349999999999941900, -0.1695145150849522700 ) ) ;
#149 = ORIENTED_EDGE ( 'NONE', *, *, #195, .T. ) ;
#150 = DIRECTION ( 'NONE',  ( 0.0000000000000000000, 0.0000000000000000000, 1.000000000000000000 ) ) ;
#151 = MANIFOLD_SOLID_BREP ( 'Imported1', #224 ) ;
#152 = LOCAL_TIME ( 15, 59, 13.00000000000000000, #204 ) ;
#153 = CARTESIAN_POINT ( 'NONE',  ( -5.811323644522303800E-014, 6.426126309198148000, -0.1736062782793975600 ) ) ;
#154 = VERTEX_POINT ( 'NONE', #174 ) ;
#155 = CARTESIAN_POINT ( 'NONE',  ( 2.498001805406600200E-016, 1.221245327087670000E-015, -0.1695145150849619900 ) ) ;
#156 = ADVANCED_FACE ( 'NONE', ( #111 ), #199, .T. ) ;
#157 = DIRECTION ( 'NONE',  ( 0.0000000000000000000, 0.0000000000000000000, 1.000000000000000000 ) ) ;
#158 = PERSON_AND_ORGANIZATION_ROLE ( 'design_supplier' ) ;
#159 = ORIENTED_EDGE ( 'NONE', *, *, #74, .T. ) ;
#160 = PERSON_AND_ORGANIZATION_ROLE ( 'creator' ) ;
#161 = CARTESIAN_POINT ( 'NONE',  ( 0.0000000000000000000, 0.0000000000000000000, 0.0000000000000000000 ) ) ;
#162 = PERSON_AND_ORGANIZATION ( #64, #76 ) ;
#163 = VECTOR ( 'NONE', #150, 1000.000000000000000 ) ;
#164 = CC_DESIGN_PERSON_AND_ORGANIZATION_ASSIGNMENT ( #179, #86, ( #13 ) ) ;
#165 = ORIENTED_EDGE ( 'NONE', *, *, #42, .T. ) ;
#166 = AXIS2_PLACEMENT_3D ( 'NONE', #155, #213, #215 ) ;
#167 = PERSON_AND_ORGANIZATION ( #64, #76 ) ;
#168 = AXIS2_PLACEMENT_3D ( 'NONE', #5, #193, #46 ) ;
#169 = PERSON_AND_ORGANIZATION ( #64, #76 ) ;
#170 = DIRECTION ( 'NONE',  ( 0.0000000000000000000, 1.000000000000000000, -2.332009377888499000E-016 ) ) ;
#171 = DATE_AND_TIME ( #222, #73 ) ;
#172 = CARTESIAN_POINT ( 'NONE',  ( -6.349999999999999600, 1.998896044546239400E-015, 2.799999999999999800 ) ) ;
#173 = DIRECTION ( 'NONE',  ( 1.000000000000000000, 0.0000000000000000000, 0.0000000000000000000 ) ) ;
#174 = CARTESIAN_POINT ( 'NONE',  ( -6.349999999999999600, 1.998896044546239400E-015, -0.1695145150849619900 ) ) ;
#175 = DIRECTION ( 'NONE',  ( 1.000000000000000000, 0.0000000000000000000, 0.0000000000000000000 ) ) ;
#176 = CARTESIAN_POINT ( 'NONE',  ( 6.378745653893331800, -6.426126309198142600, -0.3449103453417672300 ) ) ;
#177 = SECURITY_CLASSIFICATION ( '', '', #53 ) ;
#178 = CARTESIAN_POINT ( 'NONE',  ( -2.127526345832157600, -6.426126309198142600, -0.1736062782793981500 ) ) ;
#179 = PERSON_AND_ORGANIZATION ( #64, #76 ) ;
#180 = APPROVAL_ROLE ( '' ) ;
#181 = CARTESIAN_POINT ( 'NONE',  ( 2.498001805406600200E-016, 1.221245327087670000E-015, 2.799999999999999800 ) ) ;
#182 = CIRCLE ( 'NONE', #166, 6.349999999999999600 ) ;
#183 =( NAMED_UNIT ( * ) PLANE_ANGLE_UNIT ( ) SI_UNIT ( $, .RADIAN. ) );
#184 = SHAPE_DEFINITION_REPRESENTATION ( #200, #106 ) ;
#185 = ADVANCED_FACE ( 'NONE', ( #145 ), #48, .F. ) ;
#186 = CC_DESIGN_PERSON_AND_ORGANIZATION_ASSIGNMENT ( #169, #220, ( #130 ) ) ;
#187 = COORDINATED_UNIVERSAL_TIME_OFFSET ( 2, 0, .AHEAD. ) ;
#188 = CARTESIAN_POINT ( 'NONE',  ( -2.842170943040400100E-014, 6.349999999999949900, -0.1695145150849522700 ) ) ;
#189 = CARTESIAN_POINT ( 'NONE',  ( 2.498001805406600200E-016, 1.221245327087670000E-015, -0.1695145150849619900 ) ) ;
#190 = DIRECTION ( 'NONE',  ( 1.000000000000000000, 0.0000000000000000000, 0.0000000000000000000 ) ) ;
#191 = ORIENTED_EDGE ( 'NONE', *, *, #195, .F. ) ;
#192 = CARTESIAN_POINT ( 'NONE',  ( 6.378745653893331800, 6.426126309198148000, -0.3449103453417672300 ) ) ;
#193 = DIRECTION ( 'NONE',  ( 0.0000000000000000000, 0.0000000000000000000, 1.000000000000000000 ) ) ;
#194 = CARTESIAN_POINT ( 'NONE',  ( -5.898059818321144100E-014, -2.144127096766979900, 0.05792508698356586800 ) ) ;
#195 = EDGE_CURVE ( 'NONE', #45, #197, #125, .T. ) ;
#196 = FACE_OUTER_BOUND ( 'NONE', #127, .T. ) ;
#197 = VERTEX_POINT ( 'NONE', #52 ) ;
#198 = CARTESIAN_POINT ( 'NONE',  ( 2.498001805406600200E-016, 1.221245327087670000E-015, -0.1695145150849619900 ) ) ;
#199 = CYLINDRICAL_SURFACE ( 'NONE', #27, 6.349999999999999600 ) ;
#200 = PRODUCT_DEFINITION_SHAPE ( 'NONE', 'NONE',  #96 ) ;
#201 = AXIS2_PLACEMENT_3D ( 'NONE', #181, #18, #119 ) ;
#202 = UNCERTAINTY_MEASURE_WITH_UNIT (LENGTH_MEASURE( 1.000000000000000100E-005 ), #66, 'distance_accuracy_value', 'NONE');
#203 = AXIS2_PLACEMENT_3D ( 'NONE', #189, #206, #6 ) ;
#204 = COORDINATED_UNIVERSAL_TIME_OFFSET ( 2, 0, .AHEAD. ) ;
#205 = CARTESIAN_POINT ( 'NONE',  ( 2.498001805406600200E-016, 1.221245327087670000E-015, 2.799999999999999800 ) ) ;
#206 = DIRECTION ( 'NONE',  ( 0.0000000000000000000, 0.0000000000000000000, 1.000000000000000000 ) ) ;
#207 = CARTESIAN_POINT ( 'NONE',  ( 4.262573918809017900, 2.144127096766984800, 0.0006987388593394192500 ) ) ;
#208 = CARTESIAN_POINT ( 'NONE',  ( 6.391172448208768800, -2.144127096766979900, -0.1137127071973137900 ) ) ;
#209 = DATE_AND_TIME ( #139, #71 ) ;
#210 = APPROVAL_DATE_TIME ( #171, #89 ) ;
#211 = CARTESIAN_POINT ( 'NONE',  ( -4.262573918809107600, -2.144127096766979900, 0.0006987388593208115200 ) ) ;
#212 = ORIENTED_EDGE ( 'NONE', *, *, #110, .T. ) ;
#213 = DIRECTION ( 'NONE',  ( 0.0000000000000000000, 0.0000000000000000000, 1.000000000000000000 ) ) ;
#214 = DIRECTION ( 'NONE',  ( 1.000000000000000000, 0.0000000000000000000, -0.0000000000000000000 ) ) ;
#215 = DIRECTION ( 'NONE',  ( 1.000000000000000000, 0.0000000000000000000, 0.0000000000000000000 ) ) ;
#216 = APPROVAL_PERSON_ORGANIZATION ( #41, #133, #72 ) ;
#217 = DIRECTION ( 'NONE',  ( 1.000000000000000000, 0.0000000000000000000, 0.0000000000000000000 ) ) ;
#218 = AXIS2_PLACEMENT_3D ( 'NONE', #198, #70, #87 ) ;
#219 = APPLICATION_CONTEXT ( 'configuration controlled 3d designs of mechanical parts and assemblies' ) ;
#220 = PERSON_AND_ORGANIZATION_ROLE ( 'design_owner' ) ;
#221 = CC_DESIGN_PERSON_AND_ORGANIZATION_ASSIGNMENT ( #25, #160, ( #96 ) ) ;
#222 = CALENDAR_DATE ( 2019, 16, 1 ) ;
#223 = APPROVAL_DATE_TIME ( #19, #133 ) ;
#224 = CLOSED_SHELL ( 'NONE', ( #100, #233, #185, #156, #123 ) ) ;
#225 = APPROVAL_PERSON_ORGANIZATION ( #162, #54, #180 ) ;
#226 = LOCAL_TIME ( 15, 59, 13.00000000000000000, #187 ) ;
#227 = CARTESIAN_POINT ( 'NONE',  ( -2.842170943040400100E-014, 6.426126309198148000, -0.1736062782793923500 ) ) ;
#228 = CARTESIAN_POINT ( 'NONE',  ( -2.842170943040400100E-014, -6.426126309198142600, -0.1736062782793923500 ) ) ;
#229 = DIRECTION ( 'NONE',  ( 0.0000000000000000000, 0.0000000000000000000, 1.000000000000000000 ) ) ;
#230 = AXIS2_PLACEMENT_3D ( 'NONE', #205, #2, #190 ) ;
#231 = CARTESIAN_POINT ( 'NONE',  ( 2.498001805406600200E-016, 1.221245327087670000E-015, -0.1695145150849619900 ) ) ;
#232 = ORIENTED_EDGE ( 'NONE', *, *, #67, .F. ) ;
#233 = ADVANCED_FACE ( 'NONE', ( #140 ), #81, .T. ) ;
#234 = DATE_TIME_ROLE ( 'classification_date' ) ;
#235 = APPROVAL_ROLE ( '' ) ;
ENDSEC;
END-ISO-10303-21;
