ISO-10303-21;
HEADER;
FILE_DESCRIPTION (( 'STEP AP203' ),
    '1' );
FILE_NAME ('112-1121E UVFS pl-cv 12.7 F-175.STEP',
    '2019-01-16T13:43:59',
    ( '' ),
    ( '' ),
    'SwSTEP 2.0',
    'SolidWorks 2017',
    '' );
FILE_SCHEMA (( 'CONFIG_CONTROL_DESIGN' ));
ENDSEC;

DATA;
#1 = PERSON_AND_ORGANIZATION ( #199, #140 ) ;
#2 = CLOSED_SHELL ( 'NONE', ( #49, #217, #192, #175, #178 ) ) ;
#3 = AXIS2_PLACEMENT_3D ( 'NONE', #154, #230, #29 ) ;
#4 = CC_DESIGN_PERSON_AND_ORGANIZATION_ASSIGNMENT ( #92, #104, ( #16 ) ) ;
#5 = CARTESIAN_POINT ( 'NONE',  ( -2.134078698213801600, -2.146279383696801300, 0.08289925154686991800 ) ) ;
#6 = FACE_OUTER_BOUND ( 'NONE', #136, .T. ) ;
#7 = EDGE_CURVE ( 'NONE', #20, #59, #96, .T. ) ;
#8 = APPROVAL_DATE_TIME ( #31, #201 ) ;
#9 = ORIENTED_EDGE ( 'NONE', *, *, #67, .F. ) ;
#10 = CIRCLE ( 'NONE', #66, 6.349999999999999600 ) ;
#11 = APPLICATION_CONTEXT ( 'configuration controlled 3d designs of mechanical parts and assemblies' ) ;
#12 = APPLICATION_PROTOCOL_DEFINITION ( 'international standard', 'config_control_design', 1994, #229 ) ;
#13 = DIRECTION ( 'NONE',  ( 0.0000000000000000000, 0.0000000000000000000, 1.000000000000000000 ) ) ;
#14 = DATE_AND_TIME ( #204, #221 ) ;
#15 = DIRECTION ( 'NONE',  ( 1.000000000000000000, 0.0000000000000000000, -0.0000000000000000000 ) ) ;
#16 = PRODUCT_DEFINITION_FORMATION_WITH_SPECIFIED_SOURCE ( 'ANY', '', #182, .NOT_KNOWN. ) ;
#17 = APPROVAL_STATUS ( 'not_yet_approved' ) ;
#18 = EDGE_CURVE ( 'NONE', #164, #59, #79, .T. ) ;
#19 = ORIENTED_EDGE ( 'NONE', *, *, #220, .T. ) ;
#20 = VERTEX_POINT ( 'NONE', #57 ) ;
#21 = AXIS2_PLACEMENT_3D ( 'NONE', #99, #156, #28 ) ;
#22 = CARTESIAN_POINT ( 'NONE',  ( 2.498001805406600200E-016, 1.221245327087670000E-015, 2.799999999999999800 ) ) ;
#23 = MANIFOLD_SOLID_BREP ( 'Imported1', #2 ) ;
#24 = LOCAL_TIME ( 15, 43, 59.00000000000000000, #135 ) ;
#25 =( NAMED_UNIT ( * ) PLANE_ANGLE_UNIT ( ) SI_UNIT ( $, .RADIAN. ) );
#26 = DIRECTION ( 'NONE',  ( 1.000000000000000000, 0.0000000000000000000, 0.0000000000000000000 ) ) ;
#27 = CARTESIAN_POINT ( 'NONE',  ( -6.349999999999999600, 1.998896044546239400E-015, -0.2423552759559690100 ) ) ;
#28 = DIRECTION ( 'NONE',  ( 1.000000000000000000, 0.0000000000000000000, 0.0000000000000000000 ) ) ;
#29 = DIRECTION ( 'NONE',  ( 0.0000000000000000000, 1.000000000000000000, 0.0000000000000000000 ) ) ;
#30 = DIRECTION ( 'NONE',  ( 0.0000000000000000000, 0.0000000000000000000, 1.000000000000000000 ) ) ;
#31 = DATE_AND_TIME ( #107, #24 ) ;
#32 = CIRCLE ( 'NONE', #196, 6.349999999999999600 ) ;
#33 = PERSON_AND_ORGANIZATION ( #199, #140 ) ;
#34 = CYLINDRICAL_SURFACE ( 'NONE', #86, 6.349999999999999600 ) ;
#35 = CC_DESIGN_APPROVAL ( #152, ( #103 ) ) ;
#36 = CARTESIAN_POINT ( 'NONE',  ( 9.540979117872439000E-015, -2.146279383696801300, 0.08289925154686969600 ) ) ;
#37 = AXIS2_PLACEMENT_3D ( 'NONE', #22, #91, #167 ) ;
#38 = CARTESIAN_POINT ( 'NONE',  ( 2.498001805406600200E-016, 1.221245327087670000E-015, 2.799999999999999800 ) ) ;
#39 = ORIENTED_EDGE ( 'NONE', *, *, #67, .T. ) ;
#40 = ORIENTED_EDGE ( 'NONE', *, *, #220, .F. ) ;
#41 = APPLICATION_PROTOCOL_DEFINITION ( 'international standard', 'config_control_design', 1994, #11 ) ;
#42 = CARTESIAN_POINT ( 'NONE',  ( 2.498001805406600200E-016, 1.221245327087670000E-015, -0.2423552759559690100 ) ) ;
#43 = CARTESIAN_POINT ( 'NONE',  ( 4.249646049146289100, -6.426049417753811000, -0.3297571929674812400 ) ) ;
#44 = DIRECTION ( 'NONE',  ( 1.000000000000000000, 0.0000000000000000000, 0.0000000000000000000 ) ) ;
#45 = PRODUCT_DEFINITION_SHAPE ( 'NONE', 'NONE',  #50 ) ;
#46 = DIRECTION ( 'NONE',  ( 0.0000000000000000000, 0.0000000000000000000, 1.000000000000000000 ) ) ;
#47 = PERSON_AND_ORGANIZATION ( #199, #140 ) ;
#48 = ORIENTED_EDGE ( 'NONE', *, *, #177, .T. ) ;
#49 = ADVANCED_FACE ( 'NONE', ( #6 ), #147, .F. ) ;
#50 = PRODUCT_DEFINITION ( 'UNKNOWN', '', #16, #149 ) ;
#51 = SHAPE_DEFINITION_REPRESENTATION ( #45, #128 ) ;
#52 = VECTOR ( 'NONE', #223, 1000.000000000000000 ) ;
#53 = APPROVAL_ROLE ( '' ) ;
#54 = ORIENTED_EDGE ( 'NONE', *, *, #113, .T. ) ;
#55 = ORIENTED_EDGE ( 'NONE', *, *, #7, .F. ) ;
#56 = COORDINATED_UNIVERSAL_TIME_OFFSET ( 2, 0, .AHEAD. ) ;
#57 = CARTESIAN_POINT ( 'NONE',  ( 6.349999999999999600, 1.221245327087670000E-015, -0.2423552759559690100 ) ) ;
#58 = LOCAL_TIME ( 15, 43, 59.00000000000000000, #68 ) ;
#59 = VERTEX_POINT ( 'NONE', #207 ) ;
#60 = DIRECTION ( 'NONE',  ( 1.000000000000000000, 0.0000000000000000000, 0.0000000000000000000 ) ) ;
#61 = MECHANICAL_CONTEXT ( 'NONE', #11, 'mechanical' ) ;
#62 =( NAMED_UNIT ( * ) SI_UNIT ( $, .STERADIAN. ) SOLID_ANGLE_UNIT ( ) );
#63 = ORIENTED_EDGE ( 'NONE', *, *, #177, .F. ) ;
#64 = CARTESIAN_POINT ( 'NONE',  ( -6.349999999999999600, 1.998896044546239400E-015, 2.799999999999999800 ) ) ;
#65 = APPROVAL_ROLE ( '' ) ;
#66 = AXIS2_PLACEMENT_3D ( 'NONE', #118, #13, #44 ) ;
#67 = EDGE_CURVE ( 'NONE', #59, #164, #32, .T. ) ;
#68 = COORDINATED_UNIVERSAL_TIME_OFFSET ( 2, 0, .AHEAD. ) ;
#69 = DATE_AND_TIME ( #94, #151 ) ;
#70 = CARTESIAN_POINT ( 'NONE',  ( -2.134078698213801600, 2.146279383696779500, 0.08289925154686954300 ) ) ;
#71 = CARTESIAN_POINT ( 'NONE',  ( -4.249646049146305900, -6.426049417753811000, -0.3297571929674842400 ) ) ;
#72 = CARTESIAN_POINT ( 'NONE',  ( -2.125605555249976000, 6.426049417753787900, -0.2482037945206311300 ) ) ;
#73 = CIRCLE ( 'NONE', #3, 83.31000000000000200 ) ;
#74 = CARTESIAN_POINT ( 'NONE',  ( -4.249646049146305900, 6.426049417753787900, -0.3297571929674842400 ) ) ;
#75 = CC_DESIGN_APPROVAL ( #201, ( #50 ) ) ;
#76 = CIRCLE ( 'NONE', #144, 6.349999999999999600 ) ;
#77 = AXIS2_PLACEMENT_3D ( 'NONE', #232, #46, #191 ) ;
#78 = UNCERTAINTY_MEASURE_WITH_UNIT (LENGTH_MEASURE( 1.000000000000000100E-005 ), #216, 'distance_accuracy_value', 'NONE');
#79 = CIRCLE ( 'NONE', #37, 6.349999999999999600 ) ;
#80 = CARTESIAN_POINT ( 'NONE',  ( 2.125605555249986600, 6.426049417753787900, -0.2482037945206330100 ) ) ;
#81 = DIRECTION ( 'NONE',  ( 0.0000000000000000000, 0.0000000000000000000, 1.000000000000000000 ) ) ;
#82 = APPROVAL_DATE_TIME ( #14, #132 ) ;
#83 = PERSON_AND_ORGANIZATION_ROLE ( 'creator' ) ;
#84 = ORIENTED_EDGE ( 'NONE', *, *, #141, .T. ) ;
#85 = LOCAL_TIME ( 15, 43, 59.00000000000000000, #185 ) ;
#86 = AXIS2_PLACEMENT_3D ( 'NONE', #42, #173, #133 ) ;
#87 = CARTESIAN_POINT ( 'NONE',  ( -6.394381908300037100, -2.146279383696801300, -0.1626156419250217300 ) ) ;
#88 = FACE_OUTER_BOUND ( 'NONE', #188, .T. ) ;
#89 = EDGE_CURVE ( 'NONE', #198, #112, #10, .T. ) ;
#90 = CARTESIAN_POINT ( 'NONE',  ( -6.394381908300037100, 2.146279383696779500, -0.1626156419250221200 ) ) ;
#91 = DIRECTION ( 'NONE',  ( -0.0000000000000000000, -0.0000000000000000000, -1.000000000000000000 ) ) ;
#92 = PERSON_AND_ORGANIZATION ( #199, #140 ) ;
#93 = ORIENTED_EDGE ( 'NONE', *, *, #7, .T. ) ;
#94 = CALENDAR_DATE ( 2019, 16, 1 ) ;
#95 = DIRECTION ( 'NONE',  ( -0.0000000000000000000, -0.0000000000000000000, -1.000000000000000000 ) ) ;
#96 = LINE ( 'NONE', #205, #52 ) ;
#97 = CARTESIAN_POINT ( 'NONE',  ( 2.498001805406600200E-016, 1.221245327087670000E-015, -0.2423552759559690100 ) ) ;
#98 = PERSON_AND_ORGANIZATION_ROLE ( 'design_owner' ) ;
#99 = CARTESIAN_POINT ( 'NONE',  ( 2.498001805406600200E-016, 1.221245327087670000E-015, -0.2423552759559690100 ) ) ;
#100 = CARTESIAN_POINT ( 'NONE',  ( 4.266586096386541600, 2.146279383696779500, 0.001020762867487998200 ) ) ;
#101 = CARTESIAN_POINT ( 'NONE',  ( 6.368993663658556200, 6.426049417753788800, -0.4927438960160645500 ) ) ;
#102 = CARTESIAN_POINT ( 'NONE',  ( 0.0000000000000000000, 0.0000000000000000000, 0.0000000000000000000 ) ) ;
#103 = SECURITY_CLASSIFICATION ( '', '', #197 ) ;
#104 = PERSON_AND_ORGANIZATION_ROLE ( 'creator' ) ;
#105 = ORIENTED_EDGE ( 'NONE', *, *, #18, .F. ) ;
#106 = APPROVAL_STATUS ( 'not_yet_approved' ) ;
#107 = CALENDAR_DATE ( 2019, 16, 1 ) ;
#108 = ORIENTED_EDGE ( 'NONE', *, *, #129, .T. ) ;
#109 = ORIENTED_EDGE ( 'NONE', *, *, #89, .F. ) ;
#110 = DATE_AND_TIME ( #233, #85 ) ;
#111 = CARTESIAN_POINT ( 'NONE',  ( -2.125605555249976000, -6.426049417753811000, -0.2482037945206311300 ) ) ;
#112 = VERTEX_POINT ( 'NONE', #168 ) ;
#113 = EDGE_CURVE ( 'NONE', #120, #112, #73, .T. ) ;
#114 = CARTESIAN_POINT ( 'NONE',  ( 8.673617379884035500E-015, 6.426049417753788800, -0.2482037945206313200 ) ) ;
#115 = CC_DESIGN_PERSON_AND_ORGANIZATION_ASSIGNMENT ( #130, #83, ( #50 ) ) ;
#116 = APPROVAL_PERSON_ORGANIZATION ( #127, #152, #53 ) ;
#117 = CARTESIAN_POINT ( 'NONE',  ( 2.134078698213812700, 2.146279383696779500, 0.08289925154686764200 ) ) ;
#118 = CARTESIAN_POINT ( 'NONE',  ( 2.498001805406600200E-016, 1.221245327087670000E-015, -0.2423552759559690100 ) ) ;
#119 = CARTESIAN_POINT ( 'NONE',  ( 2.939783095270372300E-014, -2.146279383696801300, 0.08289925154686883500 ) ) ;
#120 = VERTEX_POINT ( 'NONE', #208 ) ;
#121 = CARTESIAN_POINT ( 'NONE',  ( 6.368993663658556200, -6.426049417753810100, -0.4927438960160645500 ) ) ;
#122 = CARTESIAN_POINT ( 'NONE',  ( 6.394381908299993500, -2.146279383696801300, -0.1626156419250154600 ) ) ;
#123 = CC_DESIGN_PERSON_AND_ORGANIZATION_ASSIGNMENT ( #1, #98, ( #182 ) ) ;
#124 = PERSON_AND_ORGANIZATION_ROLE ( 'design_supplier' ) ;
#125 = APPROVAL_PERSON_ORGANIZATION ( #227, #132, #65 ) ;
#126 = CC_DESIGN_PERSON_AND_ORGANIZATION_ASSIGNMENT ( #47, #139, ( #103 ) ) ;
#127 = PERSON_AND_ORGANIZATION ( #199, #140 ) ;
#128 = ADVANCED_BREP_SHAPE_REPRESENTATION ( '112-1121E UVFS pl-cv 12.7 F-175', ( #23, #222 ), #215 ) ;
#129 = EDGE_CURVE ( 'NONE', #120, #198, #146, .T. ) ;
#130 = PERSON_AND_ORGANIZATION ( #199, #140 ) ;
#131 = AXIS2_PLACEMENT_3D ( 'NONE', #97, #30, #153 ) ;
#132 = APPROVAL ( #159, 'UNSPECIFIED' ) ;
#133 = DIRECTION ( 'NONE',  ( 1.000000000000000000, 0.0000000000000000000, 0.0000000000000000000 ) ) ;
#134 = CARTESIAN_POINT ( 'NONE',  ( 2.498001805406600200E-016, 1.221245327087670000E-015, -0.2423552759559690100 ) ) ;
#135 = COORDINATED_UNIVERSAL_TIME_OFFSET ( 2, 0, .AHEAD. ) ;
#136 = EDGE_LOOP ( 'NONE', ( #186, #54, #109 ) ) ;
#137 = APPROVAL_DATE_TIME ( #69, #152 ) ;
#138 = APPROVAL_ROLE ( '' ) ;
#139 = PERSON_AND_ORGANIZATION_ROLE ( 'classification_officer' ) ;
#140 = ORGANIZATION ( 'UNSPECIFIED', 'UNSPECIFIED', '' ) ;
#141 = EDGE_CURVE ( 'NONE', #198, #164, #224, .T. ) ;
#142 = COORDINATED_UNIVERSAL_TIME_OFFSET ( 2, 0, .AHEAD. ) ;
#143 = EDGE_LOOP ( 'NONE', ( #160, #40, #63 ) ) ;
#144 = AXIS2_PLACEMENT_3D ( 'NONE', #134, #190, #60 ) ;
#145 = CARTESIAN_POINT ( 'NONE',  ( -4.266586096386559400, 2.146279383696779500, 0.001020762867485070900 ) ) ;
#146 = CIRCLE ( 'NONE', #21, 6.349999999999999600 ) ;
#147 =( BOUNDED_SURFACE ( )  B_SPLINE_SURFACE ( 3, 3, ( 
 ( #206, #74, #72, #114 ),
 ( #90, #145, #70, #202 ),
 ( #87, #225, #5, #36 ),
 ( #184, #71, #111, #203 ) ),
 .UNSPECIFIED., .F., .F., .F. ) 
 B_SPLINE_SURFACE_WITH_KNOTS ( ( 4, 4 ),
 ( 4, 4 ),
 ( 0.0000000000000000000, 1.000000000000000000 ),
 ( 0.0000000000000000000, 1.000000000000000000 ),
 .UNSPECIFIED. ) 
 GEOMETRIC_REPRESENTATION_ITEM ( )  RATIONAL_B_SPLINE_SURFACE ( (
 ( 1.000000000000000000, 0.9995091402385579700, 0.9995091402385579700, 1.000000000000000000),
 ( 0.9980138135116181100, 0.9975239286892019200, 0.9975239286892019200, 0.9980138135116181100),
 ( 0.9980138135116181100, 0.9975239286892019200, 0.9975239286892019200, 0.9980138135116181100),
 ( 1.000000000000000000, 0.9995091402385579700, 0.9995091402385579700, 1.000000000000000000) ) ) 
 REPRESENTATION_ITEM ( '' )  SURFACE ( )  );
#148 = CC_DESIGN_APPROVAL ( #132, ( #16 ) ) ;
#149 = DESIGN_CONTEXT ( 'detailed design', #229, 'design' ) ;
#150 = PERSON_AND_ORGANIZATION ( #199, #140 ) ;
#151 = LOCAL_TIME ( 15, 43, 59.00000000000000000, #56 ) ;
#152 = APPROVAL ( #17, 'UNSPECIFIED' ) ;
#153 = DIRECTION ( 'NONE',  ( 1.000000000000000000, 0.0000000000000000000, 0.0000000000000000000 ) ) ;
#154 = CARTESIAN_POINT ( 'NONE',  ( 0.0000000000000000000, -7.105427357601000300E-015, -83.31000000000000200 ) ) ;
#155 = CARTESIAN_POINT ( 'NONE',  ( 4.266586096386541600, -2.146279383696801300, 0.001020762867488431900 ) ) ;
#156 = DIRECTION ( 'NONE',  ( 0.0000000000000000000, 0.0000000000000000000, 1.000000000000000000 ) ) ;
#157 = CARTESIAN_POINT ( 'NONE',  ( 2.939783095270372300E-014, 2.146279383696779500, 0.08289925154686839100 ) ) ;
#158 = CARTESIAN_POINT ( 'NONE',  ( -6.349999999999999600, 1.998896044546239400E-015, -0.2423552759559690100 ) ) ;
#159 = APPROVAL_STATUS ( 'not_yet_approved' ) ;
#160 = ORIENTED_EDGE ( 'NONE', *, *, #113, .F. ) ;
#161 = DATE_TIME_ROLE ( 'creation_date' ) ;
#162 = CC_DESIGN_PERSON_AND_ORGANIZATION_ASSIGNMENT ( #150, #124, ( #16 ) ) ;
#163 = DATE_TIME_ROLE ( 'classification_date' ) ;
#164 = VERTEX_POINT ( 'NONE', #64 ) ;
#165 = CC_DESIGN_SECURITY_CLASSIFICATION ( #103, ( #16 ) ) ;
#166 = CYLINDRICAL_SURFACE ( 'NONE', #131, 6.349999999999999600 ) ;
#167 = DIRECTION ( 'NONE',  ( 1.000000000000000000, 0.0000000000000000000, 0.0000000000000000000 ) ) ;
#168 = CARTESIAN_POINT ( 'NONE',  ( 2.928317157880082700E-014, -6.349999999999982800, -0.2423552759559675400 ) ) ;
#169 = CARTESIAN_POINT ( 'NONE',  ( 2.928110984738687300E-014, -6.426049417753810100, -0.2482037945206322400 ) ) ;
#170 = CC_DESIGN_DATE_AND_TIME_ASSIGNMENT ( #218, #161, ( #50 ) ) ;
#171 =( BOUNDED_SURFACE ( )  B_SPLINE_SURFACE ( 3, 3, ( 
 ( #214, #80, #212, #101 ),
 ( #157, #117, #100, #172 ),
 ( #119, #231, #155, #122 ),
 ( #169, #210, #43, #121 ) ),
 .UNSPECIFIED., .F., .F., .F. ) 
 B_SPLINE_SURFACE_WITH_KNOTS ( ( 4, 4 ),
 ( 4, 4 ),
 ( 0.0000000000000000000, 1.000000000000000000 ),
 ( 0.0000000000000000000, 1.000000000000000000 ),
 .UNSPECIFIED. ) 
 GEOMETRIC_REPRESENTATION_ITEM ( )  RATIONAL_B_SPLINE_SURFACE ( (
 ( 1.000000000000000000, 0.9995091402385579700, 0.9995091402385579700, 1.000000000000000000),
 ( 0.9980138135116181100, 0.9975239286892019200, 0.9975239286892019200, 0.9980138135116181100),
 ( 0.9980138135116181100, 0.9975239286892019200, 0.9975239286892019200, 0.9980138135116181100),
 ( 1.000000000000000000, 0.9995091402385579700, 0.9995091402385579700, 1.000000000000000000) ) ) 
 REPRESENTATION_ITEM ( '' )  SURFACE ( )  );
#172 = CARTESIAN_POINT ( 'NONE',  ( 6.394381908299993500, 2.146279383696779500, -0.1626156419250159000 ) ) ;
#173 = DIRECTION ( 'NONE',  ( 0.0000000000000000000, 0.0000000000000000000, 1.000000000000000000 ) ) ;
#174 = ORIENTED_EDGE ( 'NONE', *, *, #18, .T. ) ;
#175 = ADVANCED_FACE ( 'NONE', ( #183 ), #34, .T. ) ;
#176 = PLANE ( 'NONE',  #226 ) ;
#177 = EDGE_CURVE ( 'NONE', #112, #20, #211, .T. ) ;
#178 = ADVANCED_FACE ( 'NONE', ( #88 ), #176, .T. ) ;
#179 = DIRECTION ( 'NONE',  ( 0.0000000000000000000, 0.0000000000000000000, 1.000000000000000000 ) ) ;
#180 = FACE_OUTER_BOUND ( 'NONE', #143, .T. ) ;
#181 = CC_DESIGN_DATE_AND_TIME_ASSIGNMENT ( #110, #163, ( #103 ) ) ;
#182 = PRODUCT ( '112-1121E UVFS pl-cv 12.7 F-175', '112-1121E UVFS pl-cv 12.7 F-175', '', ( #61 ) ) ;
#183 = FACE_OUTER_BOUND ( 'NONE', #194, .T. ) ;
#184 = CARTESIAN_POINT ( 'NONE',  ( -6.368993663658599800, -6.426049417753810100, -0.4927438960160707100 ) ) ;
#185 = COORDINATED_UNIVERSAL_TIME_OFFSET ( 2, 0, .AHEAD. ) ;
#186 = ORIENTED_EDGE ( 'NONE', *, *, #129, .F. ) ;
#187 = PRODUCT_RELATED_PRODUCT_CATEGORY ( 'detail', '', ( #182 ) ) ;
#188 = EDGE_LOOP ( 'NONE', ( #9, #105 ) ) ;
#189 = DIRECTION ( 'NONE',  ( 1.000000000000000000, 0.0000000000000000000, 0.0000000000000000000 ) ) ;
#190 = DIRECTION ( 'NONE',  ( 0.0000000000000000000, 0.0000000000000000000, 1.000000000000000000 ) ) ;
#191 = DIRECTION ( 'NONE',  ( 1.000000000000000000, 0.0000000000000000000, 0.0000000000000000000 ) ) ;
#192 = ADVANCED_FACE ( 'NONE', ( #180 ), #171, .F. ) ;
#193 = CALENDAR_DATE ( 2019, 16, 1 ) ;
#194 = EDGE_LOOP ( 'NONE', ( #209, #228, #48, #93, #39 ) ) ;
#195 = CARTESIAN_POINT ( 'NONE',  ( 0.0000000000000000000, 13.15799999999999900, 2.799999999999999800 ) ) ;
#196 = AXIS2_PLACEMENT_3D ( 'NONE', #38, #95, #189 ) ;
#197 = SECURITY_CLASSIFICATION_LEVEL ( 'unclassified' ) ;
#198 = VERTEX_POINT ( 'NONE', #158 ) ;
#199 = PERSON ( 'UNSPECIFIED', 'UNSPECIFIED', 'UNSPECIFIED', ('UNSPECIFIED'), ('UNSPECIFIED'), ('UNSPECIFIED') ) ;
#200 = APPROVAL_PERSON_ORGANIZATION ( #33, #201, #138 ) ;
#201 = APPROVAL ( #106, 'UNSPECIFIED' ) ;
#202 = CARTESIAN_POINT ( 'NONE',  ( 9.540979117872439000E-015, 2.146279383696779500, 0.08289925154686932100 ) ) ;
#203 = CARTESIAN_POINT ( 'NONE',  ( 8.673617379884035500E-015, -6.426049417753810100, -0.2482037945206313200 ) ) ;
#204 = CALENDAR_DATE ( 2019, 16, 1 ) ;
#205 = CARTESIAN_POINT ( 'NONE',  ( 6.349999999999999600, 1.221245327087670000E-015, -0.2423552759559690100 ) ) ;
#206 = CARTESIAN_POINT ( 'NONE',  ( -6.368993663658599800, 6.426049417753788800, -0.4927438960160707100 ) ) ;
#207 = CARTESIAN_POINT ( 'NONE',  ( 6.349999999999999600, 1.221245327087670000E-015, 2.799999999999999800 ) ) ;
#208 = CARTESIAN_POINT ( 'NONE',  ( 2.928317157880082700E-014, 6.349999999999976600, -0.2423552759559675400 ) ) ;
#209 = ORIENTED_EDGE ( 'NONE', *, *, #141, .F. ) ;
#210 = CARTESIAN_POINT ( 'NONE',  ( 2.125605555249986600, -6.426049417753811000, -0.2482037945206330100 ) ) ;
#211 = CIRCLE ( 'NONE', #77, 6.349999999999999600 ) ;
#212 = CARTESIAN_POINT ( 'NONE',  ( 4.249646049146289100, 6.426049417753787900, -0.3297571929674812400 ) ) ;
#213 = EDGE_LOOP ( 'NONE', ( #19, #108, #84, #174, #55 ) ) ;
#214 = CARTESIAN_POINT ( 'NONE',  ( 2.928110984738687300E-014, 6.426049417753788800, -0.2482037945206322400 ) ) ;
#215 =( GEOMETRIC_REPRESENTATION_CONTEXT ( 3 ) GLOBAL_UNCERTAINTY_ASSIGNED_CONTEXT ( ( #78 ) ) GLOBAL_UNIT_ASSIGNED_CONTEXT ( ( #216, #25, #62 ) ) REPRESENTATION_CONTEXT ( 'NONE', 'WORKASPACE' ) );
#216 =( LENGTH_UNIT ( ) NAMED_UNIT ( * ) SI_UNIT ( .MILLI., .METRE. ) );
#217 = ADVANCED_FACE ( 'NONE', ( #219 ), #166, .T. ) ;
#218 = DATE_AND_TIME ( #193, #58 ) ;
#219 = FACE_OUTER_BOUND ( 'NONE', #213, .T. ) ;
#220 = EDGE_CURVE ( 'NONE', #20, #120, #76, .T. ) ;
#221 = LOCAL_TIME ( 15, 43, 59.00000000000000000, #142 ) ;
#222 = AXIS2_PLACEMENT_3D ( 'NONE', #102, #234, #26 ) ;
#223 = DIRECTION ( 'NONE',  ( 0.0000000000000000000, 0.0000000000000000000, 1.000000000000000000 ) ) ;
#224 = LINE ( 'NONE', #27, #235 ) ;
#225 = CARTESIAN_POINT ( 'NONE',  ( -4.266586096386559400, -2.146279383696801300, 0.001020762867485450400 ) ) ;
#226 = AXIS2_PLACEMENT_3D ( 'NONE', #195, #81, #15 ) ;
#227 = PERSON_AND_ORGANIZATION ( #199, #140 ) ;
#228 = ORIENTED_EDGE ( 'NONE', *, *, #89, .T. ) ;
#229 = APPLICATION_CONTEXT ( 'configuration controlled 3d designs of mechanical parts and assemblies' ) ;
#230 = DIRECTION ( 'NONE',  ( 1.000000000000000000, 0.0000000000000000000, -3.525219918788039800E-016 ) ) ;
#231 = CARTESIAN_POINT ( 'NONE',  ( 2.134078698213812700, -2.146279383696801300, 0.08289925154686808600 ) ) ;
#232 = CARTESIAN_POINT ( 'NONE',  ( 2.498001805406600200E-016, 1.221245327087670000E-015, -0.2423552759559690100 ) ) ;
#233 = CALENDAR_DATE ( 2019, 16, 1 ) ;
#234 = DIRECTION ( 'NONE',  ( 0.0000000000000000000, 0.0000000000000000000, 1.000000000000000000 ) ) ;
#235 = VECTOR ( 'NONE', #179, 1000.000000000000000 ) ;
ENDSEC;
END-ISO-10303-21;
