ISO-10303-21;
HEADER;
FILE_DESCRIPTION (( 'STEP AP203' ),
    '1' );
FILE_NAME ('112-1119E UVFS pl-cv 12.7 F-150.STEP',
    '2019-01-16T13:36:26',
    ( '' ),
    ( '' ),
    'SwSTEP 2.0',
    'SolidWorks 2017',
    '' );
FILE_SCHEMA (( 'CONFIG_CONTROL_DESIGN' ));
ENDSEC;

DATA;
#1 = CYLINDRICAL_SURFACE ( 'NONE', #183, 6.349999999999999600 ) ;
#2 = CARTESIAN_POINT ( 'NONE',  ( -1.371749349081540500E-014, -2.147807523514945400, 0.09683415922007990200 ) ) ;
#3 = CARTESIAN_POINT ( 'NONE',  ( 2.135788377628256900, -2.147807523514945400, 0.09683415922007945800 ) ) ;
#4 = DIRECTION ( 'NONE',  ( 1.000000000000000000, 0.0000000000000000000, 0.0000000000000000000 ) ) ;
#5 =( NAMED_UNIT ( * ) PLANE_ANGLE_UNIT ( ) SI_UNIT ( $, .RADIAN. ) );
#6 = ORIENTED_EDGE ( 'NONE', *, *, #140, .T. ) ;
#7 = MANIFOLD_SOLID_BREP ( 'Imported1', #147 ) ;
#8 = PERSON_AND_ORGANIZATION ( #115, #99 ) ;
#9 = ORIENTED_EDGE ( 'NONE', *, *, #214, .T. ) ;
#10 = AXIS2_PLACEMENT_3D ( 'NONE', #112, #96, #4 ) ;
#11 = PERSON_AND_ORGANIZATION_ROLE ( 'design_owner' ) ;
#12 = EDGE_CURVE ( 'NONE', #61, #149, #121, .T. ) ;
#13 = CC_DESIGN_APPROVAL ( #230, ( #143 ) ) ;
#14 = CARTESIAN_POINT ( 'NONE',  ( -2.949029909160572700E-014, -2.147807523514945900, 0.09683415922008352400 ) ) ;
#15 = DIRECTION ( 'NONE',  ( 0.0000000000000000000, 0.0000000000000000000, 1.000000000000000000 ) ) ;
#16 = APPROVAL ( #101, 'UNSPECIFIED' ) ;
#17 = FACE_OUTER_BOUND ( 'NONE', #34, .T. ) ;
#18 = CARTESIAN_POINT ( 'NONE',  ( -6.349999999999999600, 1.998896044546239400E-015, -0.2828912439146020200 ) ) ;
#19 = DIRECTION ( 'NONE',  ( 0.0000000000000000000, 0.0000000000000000000, 1.000000000000000000 ) ) ;
#20 = APPROVAL_DATE_TIME ( #105, #16 ) ;
#21 = EDGE_LOOP ( 'NONE', ( #114, #192 ) ) ;
#22 = CARTESIAN_POINT ( 'NONE',  ( 2.135788377628256500, 2.147807523514949000, 0.09683415922006655100 ) ) ;
#23 = AXIS2_PLACEMENT_3D ( 'NONE', #222, #47, #228 ) ;
#24 = APPLICATION_CONTEXT ( 'configuration controlled 3d designs of mechanical parts and assemblies' ) ;
#25 = DIRECTION ( 'NONE',  ( -0.0000000000000000000, -0.0000000000000000000, -1.000000000000000000 ) ) ;
#26 = CALENDAR_DATE ( 2019, 16, 1 ) ;
#27 = VECTOR ( 'NONE', #148, 1000.000000000000000 ) ;
#28 = EDGE_CURVE ( 'NONE', #52, #42, #213, .T. ) ;
#29 = AXIS2_PLACEMENT_3D ( 'NONE', #133, #65, #93 ) ;
#30 = LOCAL_TIME ( 15, 36, 26.00000000000000000, #33 ) ;
#31 = PERSON_AND_ORGANIZATION_ROLE ( 'creator' ) ;
#32 = PERSON_AND_ORGANIZATION_ROLE ( 'creator' ) ;
#33 = COORDINATED_UNIVERSAL_TIME_OFFSET ( 2, 0, .AHEAD. ) ;
#34 = EDGE_LOOP ( 'NONE', ( #195, #81, #136 ) ) ;
#35 = CC_DESIGN_PERSON_AND_ORGANIZATION_ASSIGNMENT ( #113, #157, ( #216 ) ) ;
#36 = APPLICATION_PROTOCOL_DEFINITION ( 'international standard', 'config_control_design', 1994, #24 ) ;
#37 = UNCERTAINTY_MEASURE_WITH_UNIT (LENGTH_MEASURE( 1.000000000000000100E-005 ), #182, 'distance_accuracy_value', 'NONE');
#38 = PERSON_AND_ORGANIZATION ( #115, #99 ) ;
#39 = AXIS2_PLACEMENT_3D ( 'NONE', #173, #151, #63 ) ;
#40 = CARTESIAN_POINT ( 'NONE',  ( -2.949029909160572100E-014, 6.425994876635545700, -0.2897167479947829200 ) ) ;
#41 = PERSON_AND_ORGANIZATION ( #115, #99 ) ;
#42 = VERTEX_POINT ( 'NONE', #56 ) ;
#43 = CARTESIAN_POINT ( 'NONE',  ( -4.269435004074114900, -2.147807523514945400, 0.001209541739335988900 ) ) ;
#44 = CARTESIAN_POINT ( 'NONE',  ( -6.396660672433877300, -2.147807523514945400, -0.1898479100476614400 ) ) ;
#45 = DIRECTION ( 'NONE',  ( 0.0000000000000000000, 0.0000000000000000000, 1.000000000000000000 ) ) ;
#46 = CARTESIAN_POINT ( 'NONE',  ( 6.396660672433851500, -2.147807523514945400, -0.1898479100476680200 ) ) ;
#47 = DIRECTION ( 'NONE',  ( 0.0000000000000000000, 0.0000000000000000000, 1.000000000000000000 ) ) ;
#48 = APPROVAL_DATE_TIME ( #209, #230 ) ;
#49 = DATE_TIME_ROLE ( 'creation_date' ) ;
#50 = AXIS2_PLACEMENT_3D ( 'NONE', #166, #19, #58 ) ;
#51 = APPROVAL_ROLE ( '' ) ;
#52 = VERTEX_POINT ( 'NONE', #54 ) ;
#53 = ADVANCED_FACE ( 'NONE', ( #176 ), #163, .T. ) ;
#54 = CARTESIAN_POINT ( 'NONE',  ( 6.349999999999999600, 1.221245327087670000E-015, -0.2828912439146020200 ) ) ;
#55 = DIRECTION ( 'NONE',  ( 1.000000000000000000, 0.0000000000000000000, 0.0000000000000000000 ) ) ;
#56 = CARTESIAN_POINT ( 'NONE',  ( 6.349999999999999600, 1.221245327087670000E-015, 2.700000000000000200 ) ) ;
#57 = EDGE_LOOP ( 'NONE', ( #85, #158, #128, #233, #155 ) ) ;
#58 = DIRECTION ( 'NONE',  ( 1.000000000000000000, 0.0000000000000000000, -0.0000000000000000000 ) ) ;
#59 = CARTESIAN_POINT ( 'NONE',  ( 4.246355336325892800, 6.425994876635546600, -0.3848244389037765400 ) ) ;
#60 = CARTESIAN_POINT ( 'NONE',  ( 4.269435004074083800, -2.147807523514945400, 0.001209541739330947100 ) ) ;
#61 = VERTEX_POINT ( 'NONE', #165 ) ;
#62 = CC_DESIGN_PERSON_AND_ORGANIZATION_ASSIGNMENT ( #152, #31, ( #98 ) ) ;
#63 = DIRECTION ( 'NONE',  ( 0.0000000000000000000, 1.000000000000000000, 3.886791151887539000E-016 ) ) ;
#64 = CIRCLE ( 'NONE', #10, 6.349999999999999600 ) ;
#65 = DIRECTION ( 'NONE',  ( 0.0000000000000000000, 0.0000000000000000000, 1.000000000000000000 ) ) ;
#66 = EDGE_CURVE ( 'NONE', #52, #61, #109, .T. ) ;
#67 = DATE_TIME_ROLE ( 'classification_date' ) ;
#68 = VECTOR ( 'NONE', #45, 1000.000000000000000 ) ;
#69 = APPLICATION_PROTOCOL_DEFINITION ( 'international standard', 'config_control_design', 1994, #139 ) ;
#70 = COORDINATED_UNIVERSAL_TIME_OFFSET ( 2, 0, .AHEAD. ) ;
#71 = FACE_OUTER_BOUND ( 'NONE', #21, .T. ) ;
#72 = CARTESIAN_POINT ( 'NONE',  ( 2.498001805406600200E-016, 1.221245327087670000E-015, -0.2828912439146020200 ) ) ;
#73 = CARTESIAN_POINT ( 'NONE',  ( -6.362081670088881100, -6.425994876635543000, -0.5748490742867457000 ) ) ;
#74 = ORIENTED_EDGE ( 'NONE', *, *, #162, .F. ) ;
#75 = CARTESIAN_POINT ( 'NONE',  ( -6.362081670088880300, 6.425994876635545700, -0.5748490742867595800 ) ) ;
#76 = CARTESIAN_POINT ( 'NONE',  ( 2.498001805406600200E-016, 1.221245327087670000E-015, -0.2828912439146020200 ) ) ;
#77 = LOCAL_TIME ( 15, 36, 26.00000000000000000, #70 ) ;
#78 = CARTESIAN_POINT ( 'NONE',  ( 4.269435004074082900, 2.147807523514949000, 0.001209541739318099500 ) ) ;
#79 = CARTESIAN_POINT ( 'NONE',  ( 4.246355336325893700, -6.425994876635543900, -0.3848244389037627800 ) ) ;
#80 = DIRECTION ( 'NONE',  ( -0.0000000000000000000, -0.0000000000000000000, -1.000000000000000000 ) ) ;
#81 = ORIENTED_EDGE ( 'NONE', *, *, #66, .F. ) ;
#82 = APPROVAL ( #156, 'UNSPECIFIED' ) ;
#83 = ADVANCED_FACE ( 'NONE', ( #217 ), #1, .T. ) ;
#84 = COORDINATED_UNIVERSAL_TIME_OFFSET ( 2, 0, .AHEAD. ) ;
#85 = ORIENTED_EDGE ( 'NONE', *, *, #66, .T. ) ;
#86 = PRODUCT_DEFINITION_SHAPE ( 'NONE', 'NONE',  #98 ) ;
#87 = SHAPE_DEFINITION_REPRESENTATION ( #86, #160 ) ;
#88 = CARTESIAN_POINT ( 'NONE',  ( -4.269435004074114000, 2.147807523514949000, 0.001209541739323059800 ) ) ;
#89 = CARTESIAN_POINT ( 'NONE',  ( -2.124242754825964100, -6.425994876635543900, -0.2897167479947690400 ) ) ;
#90 = PRODUCT_RELATED_PRODUCT_CATEGORY ( 'detail', '', ( #208 ) ) ;
#91 = CARTESIAN_POINT ( 'NONE',  ( -3.035766082959411800E-014, 2.147807523514948500, 0.09683415922007053400 ) ) ;
#92 = APPROVAL_PERSON_ORGANIZATION ( #204, #230, #229 ) ;
#93 = DIRECTION ( 'NONE',  ( 1.000000000000000000, 0.0000000000000000000, 0.0000000000000000000 ) ) ;
#94 = CARTESIAN_POINT ( 'NONE',  ( -1.371749349081540700E-014, 2.147807523514949000, 0.09683415922006700900 ) ) ;
#95 = EDGE_LOOP ( 'NONE', ( #225, #142, #106 ) ) ;
#96 = DIRECTION ( 'NONE',  ( 0.0000000000000000000, 0.0000000000000000000, 1.000000000000000000 ) ) ;
#97 = CIRCLE ( 'NONE', #39, 71.40999999999999700 ) ;
#98 = PRODUCT_DEFINITION ( 'UNKNOWN', '', #216, #219 ) ;
#99 = ORGANIZATION ( 'UNSPECIFIED', 'UNSPECIFIED', '' ) ;
#100 = CIRCLE ( 'NONE', #207, 6.349999999999999600 ) ;
#101 = APPROVAL_STATUS ( 'not_yet_approved' ) ;
#102 = ADVANCED_FACE ( 'NONE', ( #71 ), #221, .T. ) ;
#103 = VERTEX_POINT ( 'NONE', #125 ) ;
#104 = CC_DESIGN_PERSON_AND_ORGANIZATION_ASSIGNMENT ( #211, #32, ( #216 ) ) ;
#105 = DATE_AND_TIME ( #123, #30 ) ;
#106 = ORIENTED_EDGE ( 'NONE', *, *, #140, .F. ) ;
#107 = DIRECTION ( 'NONE',  ( 1.000000000000000000, 0.0000000000000000000, 0.0000000000000000000 ) ) ;
#108 = DIRECTION ( 'NONE',  ( 0.0000000000000000000, 0.0000000000000000000, 1.000000000000000000 ) ) ;
#109 = CIRCLE ( 'NONE', #235, 6.349999999999999600 ) ;
#110 = CARTESIAN_POINT ( 'NONE',  ( -1.379698138981362900E-014, -6.425994876635543000, -0.2897167479947726500 ) ) ;
#111 = CC_DESIGN_APPROVAL ( #16, ( #216 ) ) ;
#112 = CARTESIAN_POINT ( 'NONE',  ( 2.498001805406600200E-016, 1.221245327087670000E-015, -0.2828912439146020200 ) ) ;
#113 = PERSON_AND_ORGANIZATION ( #115, #99 ) ;
#114 = ORIENTED_EDGE ( 'NONE', *, *, #153, .F. ) ;
#115 = PERSON ( 'UNSPECIFIED', 'UNSPECIFIED', 'UNSPECIFIED', ('UNSPECIFIED'), ('UNSPECIFIED'), ('UNSPECIFIED') ) ;
#116 = CARTESIAN_POINT ( 'NONE',  ( 2.498001805406600200E-016, 1.221245327087670000E-015, 2.700000000000000200 ) ) ;
#117 = CARTESIAN_POINT ( 'NONE',  ( 6.362081670088856300, -6.425994876635543000, -0.5748490742867522500 ) ) ;
#118 = DATE_AND_TIME ( #144, #172 ) ;
#119 = CIRCLE ( 'NONE', #29, 6.349999999999999600 ) ;
#120 = APPROVAL_PERSON_ORGANIZATION ( #38, #16, #190 ) ;
#121 = CIRCLE ( 'NONE', #198, 6.349999999999999600 ) ;
#122 = ADVANCED_FACE ( 'NONE', ( #210 ), #201, .F. ) ;
#123 = CALENDAR_DATE ( 2019, 16, 1 ) ;
#124 =( GEOMETRIC_REPRESENTATION_CONTEXT ( 3 ) GLOBAL_UNCERTAINTY_ASSIGNED_CONTEXT ( ( #37 ) ) GLOBAL_UNIT_ASSIGNED_CONTEXT ( ( #182, #5, #203 ) ) REPRESENTATION_CONTEXT ( 'NONE', 'WORKASPACE' ) );
#125 = CARTESIAN_POINT ( 'NONE',  ( -6.349999999999999600, 1.998896044546239400E-015, 2.700000000000000200 ) ) ;
#126 = COORDINATED_UNIVERSAL_TIME_OFFSET ( 2, 0, .AHEAD. ) ;
#127 = CARTESIAN_POINT ( 'NONE',  ( -2.135788377628293300, -2.147807523514945900, 0.09683415922008349600 ) ) ;
#128 = ORIENTED_EDGE ( 'NONE', *, *, #162, .T. ) ;
#129 = EDGE_CURVE ( 'NONE', #61, #189, #97, .T. ) ;
#130 = CARTESIAN_POINT ( 'NONE',  ( -6.396660672433876400, 2.147807523514949000, -0.1898479100476744000 ) ) ;
#131 = CARTESIAN_POINT ( 'NONE',  ( 6.349999999999999600, 1.221245327087670000E-015, -0.2828912439146020200 ) ) ;
#132 = DATE_AND_TIME ( #26, #178 ) ;
#133 = CARTESIAN_POINT ( 'NONE',  ( 2.498001805406600200E-016, 1.221245327087670000E-015, -0.2828912439146020200 ) ) ;
#134 = CARTESIAN_POINT ( 'NONE',  ( 2.498001805406600200E-016, 1.221245327087670000E-015, 2.700000000000000200 ) ) ;
#135 = APPROVAL_DATE_TIME ( #231, #82 ) ;
#136 = ORIENTED_EDGE ( 'NONE', *, *, #214, .F. ) ;
#137 = EDGE_LOOP ( 'NONE', ( #74, #6, #9, #205, #185 ) ) ;
#138 = SECURITY_CLASSIFICATION_LEVEL ( 'unclassified' ) ;
#139 = APPLICATION_CONTEXT ( 'configuration controlled 3d designs of mechanical parts and assemblies' ) ;
#140 = EDGE_CURVE ( 'NONE', #149, #189, #64, .T. ) ;
#141 = CC_DESIGN_DATE_AND_TIME_ASSIGNMENT ( #118, #67, ( #143 ) ) ;
#142 = ORIENTED_EDGE ( 'NONE', *, *, #129, .T. ) ;
#143 = SECURITY_CLASSIFICATION ( '', '', #138 ) ;
#144 = CALENDAR_DATE ( 2019, 16, 1 ) ;
#145 = LINE ( 'NONE', #18, #68 ) ;
#146 = DIRECTION ( 'NONE',  ( 1.000000000000000000, 0.0000000000000000000, 0.0000000000000000000 ) ) ;
#147 = CLOSED_SHELL ( 'NONE', ( #122, #53, #193, #83, #102 ) ) ;
#148 = DIRECTION ( 'NONE',  ( 0.0000000000000000000, 0.0000000000000000000, 1.000000000000000000 ) ) ;
#149 = VERTEX_POINT ( 'NONE', #184 ) ;
#150 = CARTESIAN_POINT ( 'NONE',  ( -2.949029909160572100E-014, -6.425994876635543000, -0.2897167479947690400 ) ) ;
#151 = DIRECTION ( 'NONE',  ( 1.000000000000000000, 8.367767716424150400E-032, -2.056337147698020000E-016 ) ) ;
#152 = PERSON_AND_ORGANIZATION ( #115, #99 ) ;
#153 = EDGE_CURVE ( 'NONE', #42, #103, #100, .T. ) ;
#154 = MECHANICAL_CONTEXT ( 'NONE', #24, 'mechanical' ) ;
#155 = ORIENTED_EDGE ( 'NONE', *, *, #28, .F. ) ;
#156 = APPROVAL_STATUS ( 'not_yet_approved' ) ;
#157 = PERSON_AND_ORGANIZATION_ROLE ( 'design_supplier' ) ;
#158 = ORIENTED_EDGE ( 'NONE', *, *, #12, .T. ) ;
#159 = AXIS2_PLACEMENT_3D ( 'NONE', #200, #15, #164 ) ;
#160 = ADVANCED_BREP_SHAPE_REPRESENTATION ( '112-1119E UVFS pl-cv 12.7 F-150', ( #7, #23 ), #124 ) ;
#161 = COORDINATED_UNIVERSAL_TIME_OFFSET ( 2, 0, .AHEAD. ) ;
#162 = EDGE_CURVE ( 'NONE', #149, #103, #145, .T. ) ;
#163 = CYLINDRICAL_SURFACE ( 'NONE', #159, 6.349999999999999600 ) ;
#164 = DIRECTION ( 'NONE',  ( 1.000000000000000000, 0.0000000000000000000, 0.0000000000000000000 ) ) ;
#165 = CARTESIAN_POINT ( 'NONE',  ( -1.379557783605444900E-014, 6.350000000000011200, -0.2828912439146030700 ) ) ;
#166 = CARTESIAN_POINT ( 'NONE',  ( 0.0000000000000000000, 13.15799999999999900, 2.700000000000000200 ) ) ;
#167 = CARTESIAN_POINT ( 'NONE',  ( 2.124242754825925900, 6.425994876635546600, -0.2897167479947869700 ) ) ;
#168 = CALENDAR_DATE ( 2019, 16, 1 ) ;
#169 = CARTESIAN_POINT ( 'NONE',  ( 2.124242754825926400, -6.425994876635543900, -0.2897167479947730900 ) ) ;
#170 = CC_DESIGN_PERSON_AND_ORGANIZATION_ASSIGNMENT ( #8, #11, ( #208 ) ) ;
#171 = DIRECTION ( 'NONE',  ( 1.000000000000000000, 0.0000000000000000000, 0.0000000000000000000 ) ) ;
#172 = LOCAL_TIME ( 15, 36, 26.00000000000000000, #161 ) ;
#173 = CARTESIAN_POINT ( 'NONE',  ( -2.842170943040400100E-014, -7.105427357601000300E-015, -71.40999999999999700 ) ) ;
#174 = PERSON_AND_ORGANIZATION ( #115, #99 ) ;
#175 = APPROVAL_STATUS ( 'not_yet_approved' ) ;
#176 = FACE_OUTER_BOUND ( 'NONE', #57, .T. ) ;
#177 = PERSON_AND_ORGANIZATION_ROLE ( 'classification_officer' ) ;
#178 = LOCAL_TIME ( 15, 36, 26.00000000000000000, #84 ) ;
#179 = APPROVAL_PERSON_ORGANIZATION ( #41, #82, #51 ) ;
#180 = CC_DESIGN_APPROVAL ( #82, ( #98 ) ) ;
#181 = DIRECTION ( 'NONE',  ( 0.0000000000000000000, 0.0000000000000000000, 1.000000000000000000 ) ) ;
#182 =( LENGTH_UNIT ( ) NAMED_UNIT ( * ) SI_UNIT ( .MILLI., .METRE. ) );
#183 = AXIS2_PLACEMENT_3D ( 'NONE', #196, #181, #107 ) ;
#184 = CARTESIAN_POINT ( 'NONE',  ( -6.349999999999999600, 1.998896044546239400E-015, -0.2828912439146020200 ) ) ;
#185 = ORIENTED_EDGE ( 'NONE', *, *, #153, .T. ) ;
#186 = CARTESIAN_POINT ( 'NONE',  ( 6.362081670088854500, 6.425994876635545700, -0.5748490742867661300 ) ) ;
#187 = CC_DESIGN_SECURITY_CLASSIFICATION ( #143, ( #216 ) ) ;
#188 = DIRECTION ( 'NONE',  ( 1.000000000000000000, 0.0000000000000000000, 0.0000000000000000000 ) ) ;
#189 = VERTEX_POINT ( 'NONE', #206 ) ;
#190 = APPROVAL_ROLE ( '' ) ;
#191 = CC_DESIGN_DATE_AND_TIME_ASSIGNMENT ( #132, #49, ( #98 ) ) ;
#192 = ORIENTED_EDGE ( 'NONE', *, *, #194, .F. ) ;
#193 = ADVANCED_FACE ( 'NONE', ( #17 ), #212, .F. ) ;
#194 = EDGE_CURVE ( 'NONE', #103, #42, #199, .T. ) ;
#195 = ORIENTED_EDGE ( 'NONE', *, *, #129, .F. ) ;
#196 = CARTESIAN_POINT ( 'NONE',  ( 2.498001805406600200E-016, 1.221245327087670000E-015, -0.2828912439146020200 ) ) ;
#197 = CARTESIAN_POINT ( 'NONE',  ( -4.246355336325925700, -6.425994876635543900, -0.3848244389037577300 ) ) ;
#198 = AXIS2_PLACEMENT_3D ( 'NONE', #76, #108, #55 ) ;
#199 = CIRCLE ( 'NONE', #227, 6.349999999999999600 ) ;
#200 = CARTESIAN_POINT ( 'NONE',  ( 2.498001805406600200E-016, 1.221245327087670000E-015, -0.2828912439146020200 ) ) ;
#201 =( BOUNDED_SURFACE ( )  B_SPLINE_SURFACE ( 3, 3, ( 
 ( #75, #220, #232, #40 ),
 ( #130, #88, #234, #91 ),
 ( #44, #43, #127, #14 ),
 ( #73, #197, #89, #150 ) ),
 .UNSPECIFIED., .F., .F., .F. ) 
 B_SPLINE_SURFACE_WITH_KNOTS ( ( 4, 4 ),
 ( 4, 4 ),
 ( 0.0000000000000000000, 1.000000000000000000 ),
 ( 0.0000000000000000000, 1.000000000000000000 ),
 .UNSPECIFIED. ) 
 GEOMETRIC_REPRESENTATION_ITEM ( )  RATIONAL_B_SPLINE_SURFACE ( (
 ( 1.000000000000000000, 0.9993314720987411800, 0.9993314720987411800, 1.000000000000000000),
 ( 0.9972952737899005700, 0.9966285540735784200, 0.9966285540735784200, 0.9972952737899005700),
 ( 0.9972952737899005700, 0.9966285540735784200, 0.9966285540735784200, 0.9972952737899005700),
 ( 1.000000000000000000, 0.9993314720987411800, 0.9993314720987411800, 1.000000000000000000) ) ) 
 REPRESENTATION_ITEM ( '' )  SURFACE ( )  );
#202 = CC_DESIGN_PERSON_AND_ORGANIZATION_ASSIGNMENT ( #174, #177, ( #143 ) ) ;
#203 =( NAMED_UNIT ( * ) SI_UNIT ( $, .STERADIAN. ) SOLID_ANGLE_UNIT ( ) );
#204 = PERSON_AND_ORGANIZATION ( #115, #99 ) ;
#205 = ORIENTED_EDGE ( 'NONE', *, *, #28, .T. ) ;
#206 = CARTESIAN_POINT ( 'NONE',  ( -1.379557783605444900E-014, -6.350000000000017400, -0.2828912439146030700 ) ) ;
#207 = AXIS2_PLACEMENT_3D ( 'NONE', #134, #80, #188 ) ;
#208 = PRODUCT ( '112-1119E UVFS pl-cv 12.7 F-150', '112-1119E UVFS pl-cv 12.7 F-150', '', ( #154 ) ) ;
#209 = DATE_AND_TIME ( #215, #77 ) ;
#210 = FACE_OUTER_BOUND ( 'NONE', #95, .T. ) ;
#211 = PERSON_AND_ORGANIZATION ( #115, #99 ) ;
#212 =( BOUNDED_SURFACE ( )  B_SPLINE_SURFACE ( 3, 3, ( 
 ( #223, #167, #59, #186 ),
 ( #94, #22, #78, #226 ),
 ( #2, #3, #60, #46 ),
 ( #110, #169, #79, #117 ) ),
 .UNSPECIFIED., .F., .F., .F. ) 
 B_SPLINE_SURFACE_WITH_KNOTS ( ( 4, 4 ),
 ( 4, 4 ),
 ( 0.0000000000000000000, 1.000000000000000000 ),
 ( 0.0000000000000000000, 1.000000000000000000 ),
 .UNSPECIFIED. ) 
 GEOMETRIC_REPRESENTATION_ITEM ( )  RATIONAL_B_SPLINE_SURFACE ( (
 ( 1.000000000000000000, 0.9993314720987411800, 0.9993314720987411800, 1.000000000000000000),
 ( 0.9972952737899005700, 0.9966285540735784200, 0.9966285540735784200, 0.9972952737899005700),
 ( 0.9972952737899005700, 0.9966285540735784200, 0.9966285540735784200, 0.9972952737899005700),
 ( 1.000000000000000000, 0.9993314720987411800, 0.9993314720987411800, 1.000000000000000000) ) ) 
 REPRESENTATION_ITEM ( '' )  SURFACE ( )  );
#213 = LINE ( 'NONE', #131, #27 ) ;
#214 = EDGE_CURVE ( 'NONE', #189, #52, #119, .T. ) ;
#215 = CALENDAR_DATE ( 2019, 16, 1 ) ;
#216 = PRODUCT_DEFINITION_FORMATION_WITH_SPECIFIED_SOURCE ( 'ANY', '', #208, .NOT_KNOWN. ) ;
#217 = FACE_OUTER_BOUND ( 'NONE', #137, .T. ) ;
#218 = DIRECTION ( 'NONE',  ( 0.0000000000000000000, 0.0000000000000000000, 1.000000000000000000 ) ) ;
#219 = DESIGN_CONTEXT ( 'detailed design', #139, 'design' ) ;
#220 = CARTESIAN_POINT ( 'NONE',  ( -4.246355336325925700, 6.425994876635546600, -0.3848244389037715500 ) ) ;
#221 = PLANE ( 'NONE',  #50 ) ;
#222 = CARTESIAN_POINT ( 'NONE',  ( 0.0000000000000000000, 0.0000000000000000000, 0.0000000000000000000 ) ) ;
#223 = CARTESIAN_POINT ( 'NONE',  ( -1.379698138981363100E-014, 6.425994876635545700, -0.2897167479947865300 ) ) ;
#224 = LOCAL_TIME ( 15, 36, 26.00000000000000000, #126 ) ;
#225 = ORIENTED_EDGE ( 'NONE', *, *, #12, .F. ) ;
#226 = CARTESIAN_POINT ( 'NONE',  ( 6.396660672433850600, 2.147807523514949000, -0.1898479100476807800 ) ) ;
#227 = AXIS2_PLACEMENT_3D ( 'NONE', #116, #25, #171 ) ;
#228 = DIRECTION ( 'NONE',  ( 1.000000000000000000, 0.0000000000000000000, 0.0000000000000000000 ) ) ;
#229 = APPROVAL_ROLE ( '' ) ;
#230 = APPROVAL ( #175, 'UNSPECIFIED' ) ;
#231 = DATE_AND_TIME ( #168, #224 ) ;
#232 = CARTESIAN_POINT ( 'NONE',  ( -2.124242754825963700, 6.425994876635546600, -0.2897167479947829200 ) ) ;
#233 = ORIENTED_EDGE ( 'NONE', *, *, #194, .T. ) ;
#234 = CARTESIAN_POINT ( 'NONE',  ( -2.135788377628293800, 2.147807523514948500, 0.09683415922007045100 ) ) ;
#235 = AXIS2_PLACEMENT_3D ( 'NONE', #72, #218, #146 ) ;
ENDSEC;
END-ISO-10303-21;
