ISO-10303-21;
HEADER;
FILE_DESCRIPTION (( 'STEP AP203' ),
    '1' );
FILE_NAME ('112-1117E UVFS pl-cv 12.7 F-125.STEP',
    '2019-01-16T13:19:53',
    ( '' ),
    ( '' ),
    'SwSTEP 2.0',
    'SolidWorks 2017',
    '' );
FILE_SCHEMA (( 'CONFIG_CONTROL_DESIGN' ));
ENDSEC;

DATA;
#1 = APPROVAL_STATUS ( 'not_yet_approved' ) ;
#2 = CARTESIAN_POINT ( 'NONE',  ( -1.421085471520200100E-014, 3.552713678800500100E-015, -59.50999999999999800 ) ) ;
#3 = COORDINATED_UNIVERSAL_TIME_OFFSET ( 2, 0, .AHEAD. ) ;
#4 = CC_DESIGN_SECURITY_CLASSIFICATION ( #113, ( #50 ) ) ;
#5 = DATE_AND_TIME ( #107, #120 ) ;
#6 = CALENDAR_DATE ( 2019, 16, 1 ) ;
#7 =( BOUNDED_SURFACE ( )  B_SPLINE_SURFACE ( 3, 3, ( 
 ( #167, #156, #47, #168 ),
 ( #66, #201, #9, #105 ),
 ( #109, #172, #158, #74 ),
 ( #186, #71, #229, #144 ) ),
 .UNSPECIFIED., .F., .F., .T. ) 
 B_SPLINE_SURFACE_WITH_KNOTS ( ( 4, 4 ),
 ( 4, 4 ),
 ( 0.0000000000000000000, 1.000000000000000000 ),
 ( 0.0000000000000000000, 1.000000000000000000 ),
 .UNSPECIFIED. ) 
 GEOMETRIC_REPRESENTATION_ITEM ( )  RATIONAL_B_SPLINE_SURFACE ( (
 ( 1.000000000000000000, 0.9990363200776420900, 0.9990363200776420900, 1.000000000000000000),
 ( 0.9961020267697640000, 0.9951421032459459900, 0.9951421032459459900, 0.9961020267697640000),
 ( 0.9961020267697640000, 0.9951421032459459900, 0.9951421032459459900, 0.9961020267697640000),
 ( 1.000000000000000000, 0.9990363200776420900, 0.9990363200776420900, 1.000000000000000000) ) ) 
 REPRESENTATION_ITEM ( '' )  SURFACE ( )  );
#8 = CIRCLE ( 'NONE', #178, 6.349999999999999600 ) ;
#9 = CARTESIAN_POINT ( 'NONE',  ( 4.274175516980113400, 2.150350082362040300, 0.001488749900667749700 ) ) ;
#10 = DIRECTION ( 'NONE',  ( 0.0000000000000000000, 0.0000000000000000000, 1.000000000000000000 ) ) ;
#11 = SHAPE_DEFINITION_REPRESENTATION ( #220, #110 ) ;
#12 = CARTESIAN_POINT ( 'NONE',  ( -2.121977084146617000, -6.425904225916069900, -0.3479525803969996700 ) ) ;
#13 = ORIENTED_EDGE ( 'NONE', *, *, #206, .T. ) ;
#14 = ORIENTED_EDGE ( 'NONE', *, *, #213, .T. ) ;
#15 =( NAMED_UNIT ( * ) PLANE_ANGLE_UNIT ( ) SI_UNIT ( $, .RADIAN. ) );
#16 = DIRECTION ( 'NONE',  ( 0.0000000000000000000, 0.0000000000000000000, 1.000000000000000000 ) ) ;
#17 = FACE_OUTER_BOUND ( 'NONE', #196, .T. ) ;
#18 = APPROVAL ( #41, 'UNSPECIFIED' ) ;
#19 = COORDINATED_UNIVERSAL_TIME_OFFSET ( 2, 0, .AHEAD. ) ;
#20 = FACE_OUTER_BOUND ( 'NONE', #165, .T. ) ;
#21 = ORIENTED_EDGE ( 'NONE', *, *, #48, .T. ) ;
#22 = VECTOR ( 'NONE', #16, 1000.000000000000000 ) ;
#23 = PERSON_AND_ORGANIZATION ( #78, #46 ) ;
#24 = ORIENTED_EDGE ( 'NONE', *, *, #52, .T. ) ;
#25 = CARTESIAN_POINT ( 'NONE',  ( 2.498001805406600200E-016, 1.221245327087670000E-015, -0.3397574789489299900 ) ) ;
#26 = CC_DESIGN_PERSON_AND_ORGANIZATION_ASSIGNMENT ( #37, #117, ( #137 ) ) ;
#27 = DIRECTION ( 'NONE',  ( 1.000000000000000000, 0.0000000000000000000, 0.0000000000000000000 ) ) ;
#28 = AXIS2_PLACEMENT_3D ( 'NONE', #215, #218, #191 ) ;
#29 = CYLINDRICAL_SURFACE ( 'NONE', #150, 6.349999999999999600 ) ;
#30 = CC_DESIGN_APPROVAL ( #18, ( #137 ) ) ;
#31 = CARTESIAN_POINT ( 'NONE',  ( -4.274175516980148100, 2.150350082362040300, 0.001488749900667370700 ) ) ;
#32 = CC_DESIGN_PERSON_AND_ORGANIZATION_ASSIGNMENT ( #151, #235, ( #50 ) ) ;
#33 = ORIENTED_EDGE ( 'NONE', *, *, #48, .F. ) ;
#34 = PERSON_AND_ORGANIZATION ( #78, #46 ) ;
#35 = DIRECTION ( 'NONE',  ( 0.0000000000000000000, 0.0000000000000000000, 1.000000000000000000 ) ) ;
#36 = DIRECTION ( 'NONE',  ( -0.0000000000000000000, -0.0000000000000000000, -1.000000000000000000 ) ) ;
#37 = PERSON_AND_ORGANIZATION ( #78, #46 ) ;
#38 = AXIS2_PLACEMENT_3D ( 'NONE', #138, #184, #27 ) ;
#39 = APPROVAL_STATUS ( 'not_yet_approved' ) ;
#40 = PRODUCT ( '112-1117E UVFS pl-cv 12.7 F-125', '112-1117E UVFS pl-cv 12.7 F-125', '', ( #96 ) ) ;
#41 = APPROVAL_STATUS ( 'not_yet_approved' ) ;
#42 = VERTEX_POINT ( 'NONE', #199 ) ;
#43 = AXIS2_PLACEMENT_3D ( 'NONE', #51, #189, #118 ) ;
#44 = PRODUCT_RELATED_PRODUCT_CATEGORY ( 'detail', '', ( #40 ) ) ;
#45 = EDGE_CURVE ( 'NONE', #183, #61, #193, .T. ) ;
#46 = ORGANIZATION ( 'UNSPECIFIED', 'UNSPECIFIED', '' ) ;
#47 = CARTESIAN_POINT ( 'NONE',  ( 4.240886808225631000, 6.425904225916071700, -0.4620066326990592300 ) ) ;
#48 = EDGE_CURVE ( 'NONE', #61, #79, #8, .T. ) ;
#49 = DATE_AND_TIME ( #6, #180 ) ;
#50 = PRODUCT_DEFINITION_FORMATION_WITH_SPECIFIED_SOURCE ( 'ANY', '', #40, .NOT_KNOWN. ) ;
#51 = CARTESIAN_POINT ( 'NONE',  ( 0.0000000000000000000, 0.0000000000000000000, 0.0000000000000000000 ) ) ;
#52 = EDGE_CURVE ( 'NONE', #183, #159, #187, .T. ) ;
#53 = APPROVAL_ROLE ( '' ) ;
#54 =( LENGTH_UNIT ( ) NAMED_UNIT ( * ) SI_UNIT ( .MILLI., .METRE. ) );
#55 = CYLINDRICAL_SURFACE ( 'NONE', #166, 6.349999999999999600 ) ;
#56 = PERSON_AND_ORGANIZATION_ROLE ( 'classification_officer' ) ;
#57 = PERSON_AND_ORGANIZATION ( #78, #46 ) ;
#58 = AXIS2_PLACEMENT_3D ( 'NONE', #89, #226, #185 ) ;
#59 = ORIENTED_EDGE ( 'NONE', *, *, #221, .T. ) ;
#60 = ORIENTED_EDGE ( 'NONE', *, *, #45, .T. ) ;
#61 = VERTEX_POINT ( 'NONE', #202 ) ;
#62 = PERSON_AND_ORGANIZATION ( #78, #46 ) ;
#63 = ORIENTED_EDGE ( 'NONE', *, *, #164, .F. ) ;
#64 = CC_DESIGN_PERSON_AND_ORGANIZATION_ASSIGNMENT ( #34, #192, ( #50 ) ) ;
#65 = ADVANCED_FACE ( 'NONE', ( #100 ), #152, .T. ) ;
#66 = CARTESIAN_POINT ( 'NONE',  ( -1.421085471520199600E-014, 2.150350082362040700, 0.1164380659296479800 ) ) ;
#67 = FACE_OUTER_BOUND ( 'NONE', #84, .T. ) ;
#68 = ORIENTED_EDGE ( 'NONE', *, *, #52, .F. ) ;
#69 = DIRECTION ( 'NONE',  ( 0.0000000000000000000, 0.0000000000000000000, 1.000000000000000000 ) ) ;
#70 = CIRCLE ( 'NONE', #83, 6.349999999999999600 ) ;
#71 = CARTESIAN_POINT ( 'NONE',  ( 2.121977084146578800, -6.425904225916069900, -0.3479525803969997800 ) ) ;
#72 = CARTESIAN_POINT ( 'NONE',  ( -6.349999999999999600, 1.998896044546239400E-015, -0.3397574789489299900 ) ) ;
#73 = APPROVAL ( #1, 'UNSPECIFIED' ) ;
#74 = CARTESIAN_POINT ( 'NONE',  ( 6.400452182686505500, -2.150350082362039000, -0.2280775591134627800 ) ) ;
#75 = COORDINATED_UNIVERSAL_TIME_OFFSET ( 2, 0, .AHEAD. ) ;
#76 = APPLICATION_PROTOCOL_DEFINITION ( 'international standard', 'config_control_design', 1994, #162 ) ;
#77 = APPROVAL_ROLE ( '' ) ;
#78 = PERSON ( 'UNSPECIFIED', 'UNSPECIFIED', 'UNSPECIFIED', ('UNSPECIFIED'), ('UNSPECIFIED'), ('UNSPECIFIED') ) ;
#79 = VERTEX_POINT ( 'NONE', #155 ) ;
#80 = ORIENTED_EDGE ( 'NONE', *, *, #206, .F. ) ;
#81 = APPROVAL_DATE_TIME ( #141, #104 ) ;
#82 = CC_DESIGN_APPROVAL ( #104, ( #113 ) ) ;
#83 = AXIS2_PLACEMENT_3D ( 'NONE', #217, #36, #98 ) ;
#84 = EDGE_LOOP ( 'NONE', ( #163, #101, #173 ) ) ;
#85 =( BOUNDED_SURFACE ( )  B_SPLINE_SURFACE ( 3, 3, ( 
 ( #210, #211, #130, #142 ),
 ( #188, #31, #160, #171 ),
 ( #92, #114, #91, #231 ),
 ( #207, #129, #12, #111 ) ),
 .UNSPECIFIED., .F., .F., .T. ) 
 B_SPLINE_SURFACE_WITH_KNOTS ( ( 4, 4 ),
 ( 4, 4 ),
 ( 0.0000000000000000000, 1.000000000000000000 ),
 ( 0.0000000000000000000, 1.000000000000000000 ),
 .UNSPECIFIED. ) 
 GEOMETRIC_REPRESENTATION_ITEM ( )  RATIONAL_B_SPLINE_SURFACE ( (
 ( 1.000000000000000000, 0.9990363200776420900, 0.9990363200776420900, 1.000000000000000000),
 ( 0.9961020267697640000, 0.9951421032459459900, 0.9951421032459459900, 0.9961020267697640000),
 ( 0.9961020267697640000, 0.9951421032459459900, 0.9951421032459459900, 0.9961020267697640000),
 ( 1.000000000000000000, 0.9990363200776420900, 0.9990363200776420900, 1.000000000000000000) ) ) 
 REPRESENTATION_ITEM ( '' )  SURFACE ( )  );
#86 = ORIENTED_EDGE ( 'NONE', *, *, #221, .F. ) ;
#87 = DIRECTION ( 'NONE',  ( 0.0000000000000000000, 0.0000000000000000000, 1.000000000000000000 ) ) ;
#88 = DESIGN_CONTEXT ( 'detailed design', #162, 'design' ) ;
#89 = CARTESIAN_POINT ( 'NONE',  ( 0.0000000000000000000, 13.15799999999999900, 2.700000000000000200 ) ) ;
#90 = DIRECTION ( 'NONE',  ( 0.0000000000000000000, 0.0000000000000000000, 1.000000000000000000 ) ) ;
#91 = CARTESIAN_POINT ( 'NONE',  ( -2.138633477097460200, -2.150350082362038500, 0.1164380659296415400 ) ) ;
#92 = CARTESIAN_POINT ( 'NONE',  ( -6.400452182686539300, -2.150350082362039000, -0.2280775591134632200 ) ) ;
#93 = DIRECTION ( 'NONE',  ( 1.000000000000000000, 0.0000000000000000000, 0.0000000000000000000 ) ) ;
#94 = CARTESIAN_POINT ( 'NONE',  ( 2.498001805406600200E-016, 1.221245327087670000E-015, -0.3397574789489299900 ) ) ;
#95 = APPROVAL_ROLE ( '' ) ;
#96 = MECHANICAL_CONTEXT ( 'NONE', #146, 'mechanical' ) ;
#97 = CALENDAR_DATE ( 2019, 16, 1 ) ;
#98 = DIRECTION ( 'NONE',  ( 1.000000000000000000, 0.0000000000000000000, 0.0000000000000000000 ) ) ;
#99 = CC_DESIGN_PERSON_AND_ORGANIZATION_ASSIGNMENT ( #219, #233, ( #40 ) ) ;
#100 = FACE_OUTER_BOUND ( 'NONE', #128, .T. ) ;
#101 = ORIENTED_EDGE ( 'NONE', *, *, #230, .T. ) ;
#102 = LOCAL_TIME ( 15, 19, 53.00000000000000000, #75 ) ;
#103 = DIRECTION ( 'NONE',  ( 1.000000000000000000, 0.0000000000000000000, 0.0000000000000000000 ) ) ;
#104 = APPROVAL ( #39, 'UNSPECIFIED' ) ;
#105 = CARTESIAN_POINT ( 'NONE',  ( 6.400452182686506400, 2.150350082362040700, -0.2280775591134562900 ) ) ;
#106 = PERSON_AND_ORGANIZATION ( #78, #46 ) ;
#107 = CALENDAR_DATE ( 2019, 16, 1 ) ;
#108 = AXIS2_PLACEMENT_3D ( 'NONE', #2, #214, #176 ) ;
#109 = CARTESIAN_POINT ( 'NONE',  ( -1.421085471520199600E-014, -2.150350082362039000, 0.1164380659296414100 ) ) ;
#110 = ADVANCED_BREP_SHAPE_REPRESENTATION ( '112-1117E UVFS pl-cv 12.7 F-125', ( #127, #43 ), #119 ) ;
#111 = CARTESIAN_POINT ( 'NONE',  ( -2.688821387764051000E-014, -6.425904225916070800, -0.3479525803969992800 ) ) ;
#112 = DIRECTION ( 'NONE',  ( 1.000000000000000000, 0.0000000000000000000, 0.0000000000000000000 ) ) ;
#113 = SECURITY_CLASSIFICATION ( '', '', #194 ) ;
#114 = CARTESIAN_POINT ( 'NONE',  ( -4.274175516980148100, -2.150350082362038500, 0.001488749900660702600 ) ) ;
#115 = ORIENTED_EDGE ( 'NONE', *, *, #121, .T. ) ;
#116 = VERTEX_POINT ( 'NONE', #125 ) ;
#117 = PERSON_AND_ORGANIZATION_ROLE ( 'creator' ) ;
#118 = DIRECTION ( 'NONE',  ( 1.000000000000000000, 0.0000000000000000000, 0.0000000000000000000 ) ) ;
#119 =( GEOMETRIC_REPRESENTATION_CONTEXT ( 3 ) GLOBAL_UNCERTAINTY_ASSIGNED_CONTEXT ( ( #134 ) ) GLOBAL_UNIT_ASSIGNED_CONTEXT ( ( #54, #15, #161 ) ) REPRESENTATION_CONTEXT ( 'NONE', 'WORKASPACE' ) );
#120 = LOCAL_TIME ( 15, 19, 53.00000000000000000, #149 ) ;
#121 = EDGE_CURVE ( 'NONE', #116, #183, #126, .T. ) ;
#122 = ADVANCED_FACE ( 'NONE', ( #139 ), #7, .F. ) ;
#123 = AXIS2_PLACEMENT_3D ( 'NONE', #175, #69, #112 ) ;
#124 = APPROVAL_PERSON_ORGANIZATION ( #62, #73, #77 ) ;
#125 = CARTESIAN_POINT ( 'NONE',  ( -1.421085471520200100E-014, 6.349999999999999600, -0.3397574789489310500 ) ) ;
#126 = CIRCLE ( 'NONE', #38, 6.349999999999999600 ) ;
#127 = MANIFOLD_SOLID_BREP ( 'Imported1', #225 ) ;
#128 = EDGE_LOOP ( 'NONE', ( #86, #80 ) ) ;
#129 = CARTESIAN_POINT ( 'NONE',  ( -4.240886808225665700, -6.425904225916069900, -0.4620066326990666700 ) ) ;
#130 = CARTESIAN_POINT ( 'NONE',  ( -2.121977084146618300, 6.425904225916071700, -0.3479525803969927800 ) ) ;
#131 = DIRECTION ( 'NONE',  ( 0.0000000000000000000, 0.0000000000000000000, 1.000000000000000000 ) ) ;
#132 = DATE_TIME_ROLE ( 'classification_date' ) ;
#133 = CALENDAR_DATE ( 2019, 16, 1 ) ;
#134 = UNCERTAINTY_MEASURE_WITH_UNIT (LENGTH_MEASURE( 1.000000000000000100E-005 ), #54, 'distance_accuracy_value', 'NONE');
#135 = CARTESIAN_POINT ( 'NONE',  ( 2.498001805406600200E-016, 1.221245327087670000E-015, -0.3397574789489299900 ) ) ;
#136 = ORIENTED_EDGE ( 'NONE', *, *, #230, .F. ) ;
#137 = PRODUCT_DEFINITION ( 'UNKNOWN', '', #50, #88 ) ;
#138 = CARTESIAN_POINT ( 'NONE',  ( 2.498001805406600200E-016, 1.221245327087670000E-015, -0.3397574789489299900 ) ) ;
#139 = FACE_OUTER_BOUND ( 'NONE', #154, .T. ) ;
#140 = LOCAL_TIME ( 15, 19, 53.00000000000000000, #3 ) ;
#141 = DATE_AND_TIME ( #97, #140 ) ;
#142 = CARTESIAN_POINT ( 'NONE',  ( -2.775557561562891400E-014, 6.425904225916072600, -0.3479525803969923400 ) ) ;
#143 = CC_DESIGN_APPROVAL ( #73, ( #50 ) ) ;
#144 = CARTESIAN_POINT ( 'NONE',  ( 6.350603319961985300, -6.425904225916070800, -0.6897850025023989400 ) ) ;
#145 = DATE_TIME_ROLE ( 'creation_date' ) ;
#146 = APPLICATION_CONTEXT ( 'configuration controlled 3d designs of mechanical parts and assemblies' ) ;
#147 = APPLICATION_PROTOCOL_DEFINITION ( 'international standard', 'config_control_design', 1994, #146 ) ;
#148 = VECTOR ( 'NONE', #90, 1000.000000000000000 ) ;
#149 = COORDINATED_UNIVERSAL_TIME_OFFSET ( 2, 0, .AHEAD. ) ;
#150 = AXIS2_PLACEMENT_3D ( 'NONE', #135, #131, #177 ) ;
#151 = PERSON_AND_ORGANIZATION ( #78, #46 ) ;
#152 = PLANE ( 'NONE',  #58 ) ;
#153 = CC_DESIGN_DATE_AND_TIME_ASSIGNMENT ( #49, #132, ( #113 ) ) ;
#154 = EDGE_LOOP ( 'NONE', ( #136, #63, #33 ) ) ;
#155 = CARTESIAN_POINT ( 'NONE',  ( 6.349999999999999600, 1.221245327087670000E-015, -0.3397574789489299900 ) ) ;
#156 = CARTESIAN_POINT ( 'NONE',  ( 2.121977084146578800, 6.425904225916071700, -0.3479525803969928400 ) ) ;
#157 = CC_DESIGN_DATE_AND_TIME_ASSIGNMENT ( #212, #145, ( #137 ) ) ;
#158 = CARTESIAN_POINT ( 'NONE',  ( 4.274175516980113400, -2.150350082362038500, 0.001488749900661217600 ) ) ;
#159 = VERTEX_POINT ( 'NONE', #232 ) ;
#160 = CARTESIAN_POINT ( 'NONE',  ( -2.138633477097459300, 2.150350082362040300, 0.1164380659296481900 ) ) ;
#161 =( NAMED_UNIT ( * ) SI_UNIT ( $, .STERADIAN. ) SOLID_ANGLE_UNIT ( ) );
#162 = APPLICATION_CONTEXT ( 'configuration controlled 3d designs of mechanical parts and assemblies' ) ;
#163 = ORIENTED_EDGE ( 'NONE', *, *, #121, .F. ) ;
#164 = EDGE_CURVE ( 'NONE', #79, #116, #205, .T. ) ;
#165 = EDGE_LOOP ( 'NONE', ( #68, #60, #21, #14, #59 ) ) ;
#166 = AXIS2_PLACEMENT_3D ( 'NONE', #94, #35, #93 ) ;
#167 = CARTESIAN_POINT ( 'NONE',  ( -1.421085471520200100E-014, 6.425904225916072600, -0.3479525803969929500 ) ) ;
#168 = CARTESIAN_POINT ( 'NONE',  ( 6.350603319961987100, 6.425904225916072600, -0.6897850025023921600 ) ) ;
#169 = CIRCLE ( 'NONE', #28, 6.349999999999999600 ) ;
#170 = COORDINATED_UNIVERSAL_TIME_OFFSET ( 2, 0, .AHEAD. ) ;
#171 = CARTESIAN_POINT ( 'NONE',  ( -2.775557561562891000E-014, 2.150350082362040700, 0.1164380659296486700 ) ) ;
#172 = CARTESIAN_POINT ( 'NONE',  ( 2.138633477097418900, -2.150350082362038500, 0.1164380659296414100 ) ) ;
#173 = ORIENTED_EDGE ( 'NONE', *, *, #45, .F. ) ;
#174 = APPROVAL_DATE_TIME ( #179, #73 ) ;
#175 = CARTESIAN_POINT ( 'NONE',  ( 2.498001805406600200E-016, 1.221245327087670000E-015, -0.3397574789489299900 ) ) ;
#176 = DIRECTION ( 'NONE',  ( 0.0000000000000000000, 1.000000000000000000, -2.332009377888499000E-016 ) ) ;
#177 = DIRECTION ( 'NONE',  ( 1.000000000000000000, 0.0000000000000000000, 0.0000000000000000000 ) ) ;
#178 = AXIS2_PLACEMENT_3D ( 'NONE', #25, #87, #103 ) ;
#179 = DATE_AND_TIME ( #234, #102 ) ;
#180 = LOCAL_TIME ( 15, 19, 53.00000000000000000, #19 ) ;
#181 = APPROVAL_DATE_TIME ( #5, #18 ) ;
#182 = CARTESIAN_POINT ( 'NONE',  ( -6.349999999999999600, 1.998896044546239400E-015, -0.3397574789489299900 ) ) ;
#183 = VERTEX_POINT ( 'NONE', #72 ) ;
#184 = DIRECTION ( 'NONE',  ( 0.0000000000000000000, 0.0000000000000000000, 1.000000000000000000 ) ) ;
#185 = DIRECTION ( 'NONE',  ( 1.000000000000000000, 0.0000000000000000000, -0.0000000000000000000 ) ) ;
#186 = CARTESIAN_POINT ( 'NONE',  ( -1.421085471520200100E-014, -6.425904225916070800, -0.3479525803969998900 ) ) ;
#187 = LINE ( 'NONE', #182, #148 ) ;
#188 = CARTESIAN_POINT ( 'NONE',  ( -6.400452182686539300, 2.150350082362040700, -0.2280775591134565300 ) ) ;
#189 = DIRECTION ( 'NONE',  ( 0.0000000000000000000, 0.0000000000000000000, 1.000000000000000000 ) ) ;
#190 = APPROVAL_PERSON_ORGANIZATION ( #23, #18, #53 ) ;
#191 = DIRECTION ( 'NONE',  ( 1.000000000000000000, 0.0000000000000000000, 0.0000000000000000000 ) ) ;
#192 = PERSON_AND_ORGANIZATION_ROLE ( 'creator' ) ;
#193 = CIRCLE ( 'NONE', #200, 6.349999999999999600 ) ;
#194 = SECURITY_CLASSIFICATION_LEVEL ( 'unclassified' ) ;
#195 = ORIENTED_EDGE ( 'NONE', *, *, #164, .T. ) ;
#196 = EDGE_LOOP ( 'NONE', ( #195, #115, #24, #13, #224 ) ) ;
#197 = LINE ( 'NONE', #209, #22 ) ;
#198 = ADVANCED_FACE ( 'NONE', ( #20 ), #55, .T. ) ;
#199 = CARTESIAN_POINT ( 'NONE',  ( 6.349999999999999600, 1.221245327087670000E-015, 2.700000000000000200 ) ) ;
#200 = AXIS2_PLACEMENT_3D ( 'NONE', #223, #10, #204 ) ;
#201 = CARTESIAN_POINT ( 'NONE',  ( 2.138633477097419400, 2.150350082362040300, 0.1164380659296479600 ) ) ;
#202 = CARTESIAN_POINT ( 'NONE',  ( -1.421085471520200100E-014, -6.349999999999994300, -0.3397574789489310500 ) ) ;
#203 = ADVANCED_FACE ( 'NONE', ( #67 ), #85, .F. ) ;
#204 = DIRECTION ( 'NONE',  ( 1.000000000000000000, 0.0000000000000000000, 0.0000000000000000000 ) ) ;
#205 = CIRCLE ( 'NONE', #123, 6.349999999999999600 ) ;
#206 = EDGE_CURVE ( 'NONE', #159, #42, #169, .T. ) ;
#207 = CARTESIAN_POINT ( 'NONE',  ( -6.350603319962019100, -6.425904225916070800, -0.6897850025023993800 ) ) ;
#208 = LOCAL_TIME ( 15, 19, 53.00000000000000000, #170 ) ;
#209 = CARTESIAN_POINT ( 'NONE',  ( 6.349999999999999600, 1.221245327087670000E-015, -0.3397574789489299900 ) ) ;
#210 = CARTESIAN_POINT ( 'NONE',  ( -6.350603319962020000, 6.425904225916072600, -0.6897850025023923900 ) ) ;
#211 = CARTESIAN_POINT ( 'NONE',  ( -4.240886808225666500, 6.425904225916071700, -0.4620066326990597300 ) ) ;
#212 = DATE_AND_TIME ( #133, #208 ) ;
#213 = EDGE_CURVE ( 'NONE', #79, #42, #197, .T. ) ;
#214 = DIRECTION ( 'NONE',  ( 1.000000000000000000, 0.0000000000000000000, 0.0000000000000000000 ) ) ;
#215 = CARTESIAN_POINT ( 'NONE',  ( 2.498001805406600200E-016, 1.221245327087670000E-015, 2.700000000000000200 ) ) ;
#216 = CIRCLE ( 'NONE', #108, 59.50999999999999800 ) ;
#217 = CARTESIAN_POINT ( 'NONE',  ( 2.498001805406600200E-016, 1.221245327087670000E-015, 2.700000000000000200 ) ) ;
#218 = DIRECTION ( 'NONE',  ( -0.0000000000000000000, -0.0000000000000000000, -1.000000000000000000 ) ) ;
#219 = PERSON_AND_ORGANIZATION ( #78, #46 ) ;
#220 = PRODUCT_DEFINITION_SHAPE ( 'NONE', 'NONE',  #137 ) ;
#221 = EDGE_CURVE ( 'NONE', #42, #159, #70, .T. ) ;
#222 = ADVANCED_FACE ( 'NONE', ( #17 ), #29, .T. ) ;
#223 = CARTESIAN_POINT ( 'NONE',  ( 2.498001805406600200E-016, 1.221245327087670000E-015, -0.3397574789489299900 ) ) ;
#224 = ORIENTED_EDGE ( 'NONE', *, *, #213, .F. ) ;
#225 = CLOSED_SHELL ( 'NONE', ( #203, #222, #122, #198, #65 ) ) ;
#226 = DIRECTION ( 'NONE',  ( 0.0000000000000000000, 0.0000000000000000000, 1.000000000000000000 ) ) ;
#227 = APPROVAL_PERSON_ORGANIZATION ( #106, #104, #95 ) ;
#228 = CC_DESIGN_PERSON_AND_ORGANIZATION_ASSIGNMENT ( #57, #56, ( #113 ) ) ;
#229 = CARTESIAN_POINT ( 'NONE',  ( 4.240886808225629200, -6.425904225916069900, -0.4620066326990661100 ) ) ;
#230 = EDGE_CURVE ( 'NONE', #116, #61, #216, .T. ) ;
#231 = CARTESIAN_POINT ( 'NONE',  ( -2.862293735361731100E-014, -2.150350082362039000, 0.1164380659296420700 ) ) ;
#232 = CARTESIAN_POINT ( 'NONE',  ( -6.349999999999999600, 1.998896044546239400E-015, 2.700000000000000200 ) ) ;
#233 = PERSON_AND_ORGANIZATION_ROLE ( 'design_owner' ) ;
#234 = CALENDAR_DATE ( 2019, 16, 1 ) ;
#235 = PERSON_AND_ORGANIZATION_ROLE ( 'design_supplier' ) ;
ENDSEC;
END-ISO-10303-21;
