ISO-10303-21;
HEADER;
FILE_DESCRIPTION (( 'STEP AP203' ),
    '1' );
FILE_NAME ('112-1115E UVFS pl-cv 12.7 F-100.STEP',
    '2019-01-16T13:07:32',
    ( '' ),
    ( '' ),
    'SwSTEP 2.0',
    'SolidWorks 2017',
    '' );
FILE_SCHEMA (( 'CONFIG_CONTROL_DESIGN' ));
ENDSEC;

DATA;
#1 = ORIENTED_EDGE ( 'NONE', *, *, #185, .T. ) ;
#2 = EDGE_CURVE ( 'NONE', #79, #127, #229, .T. ) ;
#3 = CARTESIAN_POINT ( 'NONE',  ( -2.143902957711426800, 2.155057776388813500, 0.1460982708881000400 ) ) ;
#4 = CARTESIAN_POINT ( 'NONE',  ( -6.407472523964713700, 2.155057776388813000, -0.2857016120327582900 ) ) ;
#5 = VERTEX_POINT ( 'NONE', #223 ) ;
#6 = CARTESIAN_POINT ( 'NONE',  ( 7.623937154270673200E-015, 2.155057776388813000, 0.1460982708880932100 ) ) ;
#7 = AXIS2_PLACEMENT_3D ( 'NONE', #119, #202, #9 ) ;
#8 = CARTESIAN_POINT ( 'NONE',  ( -4.282954253856583900, -2.155057776388824100, 0.001947500708031162400 ) ) ;
#9 = DIRECTION ( 'NONE',  ( 1.000000000000000000, 0.0000000000000000000, 0.0000000000000000000 ) ) ;
#10 = DIRECTION ( 'NONE',  ( 0.0000000000000000000, 0.0000000000000000000, 1.000000000000000000 ) ) ;
#11 = DIRECTION ( 'NONE',  ( 0.0000000000000000000, 0.0000000000000000000, 1.000000000000000000 ) ) ;
#12 = CIRCLE ( 'NONE', #43, 6.349999999999999600 ) ;
#13 = CARTESIAN_POINT ( 'NONE',  ( 2.498001805406600200E-016, 1.221245327087670000E-015, -0.4253669082825239900 ) ) ;
#14 = APPLICATION_CONTEXT ( 'configuration controlled 3d designs of mechanical parts and assemblies' ) ;
#15 = DATE_AND_TIME ( #233, #144 ) ;
#16 = AXIS2_PLACEMENT_3D ( 'NONE', #156, #102, #154 ) ;
#17 = DATE_AND_TIME ( #30, #85 ) ;
#18 = AXIS2_PLACEMENT_3D ( 'NONE', #181, #217, #184 ) ;
#19 = CALENDAR_DATE ( 2019, 16, 1 ) ;
#20 = CARTESIAN_POINT ( 'NONE',  ( 0.0000000000000000000, 13.15799999999999900, 2.700000000000000200 ) ) ;
#21 =( BOUNDED_SURFACE ( )  B_SPLINE_SURFACE ( 3, 3, ( 
 ( #72, #173, #138, #170 ),
 ( #6, #230, #100, #84 ),
 ( #192, #193, #87, #122 ),
 ( #171, #99, #25, #228 ) ),
 .UNSPECIFIED., .F., .F., .T. ) 
 B_SPLINE_SURFACE_WITH_KNOTS ( ( 4, 4 ),
 ( 4, 4 ),
 ( 0.0000000000000000000, 1.000000000000000000 ),
 ( 0.0000000000000000000, 1.000000000000000000 ),
 .UNSPECIFIED. ) 
 GEOMETRIC_REPRESENTATION_ITEM ( )  RATIONAL_B_SPLINE_SURFACE ( (
 ( 1.000000000000000000, 0.9984913304809142100, 0.9984913304809142100, 1.000000000000000000),
 ( 0.9939001431485217100, 0.9924006762975384800, 0.9924006762975384800, 0.9939001431485217100),
 ( 0.9939001431485217100, 0.9924006762975384800, 0.9924006762975384800, 0.9939001431485217100),
 ( 1.000000000000000000, 0.9984913304809142100, 0.9984913304809142100, 1.000000000000000000) ) ) 
 REPRESENTATION_ITEM ( '' )  SURFACE ( )  );
#22 = COORDINATED_UNIVERSAL_TIME_OFFSET ( 2, 0, .AHEAD. ) ;
#23 = CC_DESIGN_PERSON_AND_ORGANIZATION_ASSIGNMENT ( #126, #103, ( #179 ) ) ;
#24 = AXIS2_PLACEMENT_3D ( 'NONE', #191, #151, #188 ) ;
#25 = CARTESIAN_POINT ( 'NONE',  ( 4.230783362544368500, -6.425736697338552800, -0.5780161391056628500 ) ) ;
#26 = ORGANIZATION ( 'UNSPECIFIED', 'UNSPECIFIED', '' ) ;
#27 = DIRECTION ( 'NONE',  ( 0.0000000000000000000, 0.0000000000000000000, 1.000000000000000000 ) ) ;
#28 = CARTESIAN_POINT ( 'NONE',  ( -6.349999999999999600, 1.998896044546239400E-015, -0.4253669082825239900 ) ) ;
#29 = APPLICATION_CONTEXT ( 'configuration controlled 3d designs of mechanical parts and assemblies' ) ;
#30 = CALENDAR_DATE ( 2019, 16, 1 ) ;
#31 = PRODUCT_RELATED_PRODUCT_CATEGORY ( 'detail', '', ( #179 ) ) ;
#32 = CARTESIAN_POINT ( 'NONE',  ( 2.498001805406600200E-016, 1.221245327087670000E-015, -0.4253669082825239900 ) ) ;
#33 = APPROVAL_DATE_TIME ( #17, #107 ) ;
#34 = ORIENTED_EDGE ( 'NONE', *, *, #56, .T. ) ;
#35 = FACE_OUTER_BOUND ( 'NONE', #49, .T. ) ;
#36 = APPROVAL ( #74, 'UNSPECIFIED' ) ;
#37 = EDGE_CURVE ( 'NONE', #127, #79, #183, .T. ) ;
#38 = PERSON_AND_ORGANIZATION ( #60, #26 ) ;
#39 = ORIENTED_EDGE ( 'NONE', *, *, #178, .T. ) ;
#40 = FACE_OUTER_BOUND ( 'NONE', #194, .T. ) ;
#41 = CARTESIAN_POINT ( 'NONE',  ( -2.117787962882804000, 6.425736697338541200, -0.4356212770483191000 ) ) ;
#42 = ADVANCED_BREP_SHAPE_REPRESENTATION ( '112-1115E UVFS pl-cv 12.7 F-100', ( #109, #111 ), #64 ) ;
#43 = AXIS2_PLACEMENT_3D ( 'NONE', #152, #27, #48 ) ;
#44 = CARTESIAN_POINT ( 'NONE',  ( -4.282954253856584800, 2.155057776388813900, 0.001947500708025090800 ) ) ;
#45 = CARTESIAN_POINT ( 'NONE',  ( 7.447680733947130500E-015, -6.349999999999984500, -0.4253669082825230500 ) ) ;
#46 = ORIENTED_EDGE ( 'NONE', *, *, #2, .F. ) ;
#47 = CARTESIAN_POINT ( 'NONE',  ( 2.498001805406600200E-016, 1.221245327087670000E-015, 2.700000000000000200 ) ) ;
#48 = DIRECTION ( 'NONE',  ( 1.000000000000000000, 0.0000000000000000000, 0.0000000000000000000 ) ) ;
#49 = EDGE_LOOP ( 'NONE', ( #182, #1, #172, #209, #86 ) ) ;
#50 = CARTESIAN_POINT ( 'NONE',  ( -6.349999999999999600, 1.998896044546239400E-015, 2.700000000000000200 ) ) ;
#51 = APPROVAL_ROLE ( '' ) ;
#52 = APPROVAL_STATUS ( 'not_yet_approved' ) ;
#53 = CC_DESIGN_APPROVAL ( #36, ( #63 ) ) ;
#54 = ADVANCED_FACE ( 'NONE', ( #40 ), #222, .T. ) ;
#55 = LOCAL_TIME ( 15, 7, 31.00000000000000000, #91 ) ;
#56 = EDGE_CURVE ( 'NONE', #216, #131, #128, .T. ) ;
#57 = DIRECTION ( 'NONE',  ( 0.0000000000000000000, 0.0000000000000000000, 1.000000000000000000 ) ) ;
#58 = ORIENTED_EDGE ( 'NONE', *, *, #37, .F. ) ;
#59 = CARTESIAN_POINT ( 'NONE',  ( -4.230783362544373800, 6.425736697338541200, -0.5780161391056618500 ) ) ;
#60 = PERSON ( 'UNSPECIFIED', 'UNSPECIFIED', 'UNSPECIFIED', ('UNSPECIFIED'), ('UNSPECIFIED'), ('UNSPECIFIED') ) ;
#61 = DATE_AND_TIME ( #19, #55 ) ;
#62 = VERTEX_POINT ( 'NONE', #213 ) ;
#63 = PRODUCT_DEFINITION_FORMATION_WITH_SPECIFIED_SOURCE ( 'ANY', '', #179, .NOT_KNOWN. ) ;
#64 =( GEOMETRIC_REPRESENTATION_CONTEXT ( 3 ) GLOBAL_UNCERTAINTY_ASSIGNED_CONTEXT ( ( #208 ) ) GLOBAL_UNIT_ASSIGNED_CONTEXT ( ( #123, #167, #67 ) ) REPRESENTATION_CONTEXT ( 'NONE', 'WORKASPACE' ) );
#65 = CARTESIAN_POINT ( 'NONE',  ( -6.407472523964713700, -2.155057776388823700, -0.2857016120327522400 ) ) ;
#66 = EDGE_LOOP ( 'NONE', ( #201, #234, #90 ) ) ;
#67 =( NAMED_UNIT ( * ) SI_UNIT ( $, .STERADIAN. ) SOLID_ANGLE_UNIT ( ) );
#68 = DIRECTION ( 'NONE',  ( -0.0000000000000000000, -0.0000000000000000000, -1.000000000000000000 ) ) ;
#69 = CARTESIAN_POINT ( 'NONE',  ( 6.349999999999999600, 1.221245327087670000E-015, 2.700000000000000200 ) ) ;
#70 = PERSON_AND_ORGANIZATION ( #60, #26 ) ;
#71 = LINE ( 'NONE', #207, #186 ) ;
#72 = CARTESIAN_POINT ( 'NONE',  ( 7.444517989483922600E-015, 6.425736697338541200, -0.4356212770483258700 ) ) ;
#73 = PERSON_AND_ORGANIZATION_ROLE ( 'classification_officer' ) ;
#74 = APPROVAL_STATUS ( 'not_yet_approved' ) ;
#75 = EDGE_CURVE ( 'NONE', #62, #5, #80, .T. ) ;
#76 = ADVANCED_FACE ( 'NONE', ( #199 ), #235, .F. ) ;
#77 = CC_DESIGN_APPROVAL ( #132, ( #153 ) ) ;
#78 = CC_DESIGN_PERSON_AND_ORGANIZATION_ASSIGNMENT ( #180, #231, ( #63 ) ) ;
#79 = VERTEX_POINT ( 'NONE', #50 ) ;
#80 = CIRCLE ( 'NONE', #18, 6.349999999999999600 ) ;
#81 = CIRCLE ( 'NONE', #166, 6.349999999999999600 ) ;
#82 = COORDINATED_UNIVERSAL_TIME_OFFSET ( 2, 0, .AHEAD. ) ;
#83 = CARTESIAN_POINT ( 'NONE',  ( -2.117787962882804500, -6.425736697338552800, -0.4356212770483120500 ) ) ;
#84 = CARTESIAN_POINT ( 'NONE',  ( 6.407472523964703000, 2.155057776388813000, -0.2857016120327656200 ) ) ;
#85 = LOCAL_TIME ( 15, 7, 31.00000000000000000, #82 ) ;
#86 = ORIENTED_EDGE ( 'NONE', *, *, #164, .F. ) ;
#87 = CARTESIAN_POINT ( 'NONE',  ( 4.282954253856580400, -2.155057776388824100, 0.001947500708023193300 ) ) ;
#88 = DIRECTION ( 'NONE',  ( 1.000000000000000000, 0.0000000000000000000, 0.0000000000000000000 ) ) ;
#89 = CC_DESIGN_PERSON_AND_ORGANIZATION_ASSIGNMENT ( #146, #124, ( #63 ) ) ;
#90 = ORIENTED_EDGE ( 'NONE', *, *, #113, .F. ) ;
#91 = COORDINATED_UNIVERSAL_TIME_OFFSET ( 2, 0, .AHEAD. ) ;
#92 = ORIENTED_EDGE ( 'NONE', *, *, #164, .T. ) ;
#93 = CC_DESIGN_PERSON_AND_ORGANIZATION_ASSIGNMENT ( #130, #141, ( #153 ) ) ;
#94 = LINE ( 'NONE', #224, #108 ) ;
#95 = CARTESIAN_POINT ( 'NONE',  ( -1.734723475976807100E-015, -6.425736697338552800, -0.4356212770483122700 ) ) ;
#96 = CARTESIAN_POINT ( 'NONE',  ( -4.230783362544373800, -6.425736697338552800, -0.5780161391056547500 ) ) ;
#97 = SECURITY_CLASSIFICATION ( '', '', #174 ) ;
#98 = ORIENTED_EDGE ( 'NONE', *, *, #56, .F. ) ;
#99 = CARTESIAN_POINT ( 'NONE',  ( 2.117787962882804500, -6.425736697338552800, -0.4356212770483196000 ) ) ;
#100 = CARTESIAN_POINT ( 'NONE',  ( 4.282954253856579500, 2.155057776388813900, 0.001947500708017121900 ) ) ;
#101 = DIRECTION ( 'NONE',  ( 0.0000000000000000000, 0.0000000000000000000, 1.000000000000000000 ) ) ;
#102 = DIRECTION ( 'NONE',  ( 1.000000000000000000, 9.412420553253650200E-032, -3.084289765114799800E-016 ) ) ;
#103 = PERSON_AND_ORGANIZATION_ROLE ( 'design_owner' ) ;
#104 = FACE_OUTER_BOUND ( 'NONE', #66, .T. ) ;
#105 = ORIENTED_EDGE ( 'NONE', *, *, #185, .F. ) ;
#106 = APPROVAL_STATUS ( 'not_yet_approved' ) ;
#107 = APPROVAL ( #106, 'UNSPECIFIED' ) ;
#108 = VECTOR ( 'NONE', #101, 1000.000000000000000 ) ;
#109 = MANIFOLD_SOLID_BREP ( 'Imported1', #147 ) ;
#110 = ORIENTED_EDGE ( 'NONE', *, *, #113, .T. ) ;
#111 = AXIS2_PLACEMENT_3D ( 'NONE', #205, #11, #88 ) ;
#112 = COORDINATED_UNIVERSAL_TIME_OFFSET ( 2, 0, .AHEAD. ) ;
#113 = EDGE_CURVE ( 'NONE', #131, #62, #12, .T. ) ;
#114 = DIRECTION ( 'NONE',  ( 0.0000000000000000000, 0.0000000000000000000, 1.000000000000000000 ) ) ;
#115 = CARTESIAN_POINT ( 'NONE',  ( -1.734723475976807100E-015, 6.425736697338541200, -0.4356212770483193200 ) ) ;
#116 = DIRECTION ( 'NONE',  ( 0.0000000000000000000, 0.0000000000000000000, 1.000000000000000000 ) ) ;
#117 = CARTESIAN_POINT ( 'NONE',  ( -1.734723475976806900E-015, 2.155057776388812600, 0.1460982708880997300 ) ) ;
#118 = CARTESIAN_POINT ( 'NONE',  ( -6.329422763724398500, -6.425736697338552800, -0.8621613828561636200 ) ) ;
#119 = CARTESIAN_POINT ( 'NONE',  ( 2.498001805406600200E-016, 1.221245327087670000E-015, -0.4253669082825239900 ) ) ;
#120 = APPROVAL_ROLE ( '' ) ;
#121 = LOCAL_TIME ( 15, 7, 31.00000000000000000, #112 ) ;
#122 = CARTESIAN_POINT ( 'NONE',  ( 6.407472523964703000, -2.155057776388823700, -0.2857016120327596800 ) ) ;
#123 =( LENGTH_UNIT ( ) NAMED_UNIT ( * ) SI_UNIT ( .MILLI., .METRE. ) );
#124 = PERSON_AND_ORGANIZATION_ROLE ( 'design_supplier' ) ;
#125 = CC_DESIGN_APPROVAL ( #107, ( #97 ) ) ;
#126 = PERSON_AND_ORGANIZATION ( #60, #26 ) ;
#127 = VERTEX_POINT ( 'NONE', #69 ) ;
#128 = CIRCLE ( 'NONE', #214, 6.349999999999999600 ) ;
#129 = EDGE_CURVE ( 'NONE', #216, #79, #94, .T. ) ;
#130 = PERSON_AND_ORGANIZATION ( #60, #26 ) ;
#131 = VERTEX_POINT ( 'NONE', #45 ) ;
#132 = APPROVAL ( #52, 'UNSPECIFIED' ) ;
#133 = EDGE_LOOP ( 'NONE', ( #105, #39, #98 ) ) ;
#134 = CC_DESIGN_SECURITY_CLASSIFICATION ( #97, ( #63 ) ) ;
#135 = DIRECTION ( 'NONE',  ( 1.000000000000000000, 0.0000000000000000000, 0.0000000000000000000 ) ) ;
#136 = APPROVAL_PERSON_ORGANIZATION ( #70, #107, #120 ) ;
#137 = CIRCLE ( 'NONE', #16, 47.60999999999999200 ) ;
#138 = CARTESIAN_POINT ( 'NONE',  ( 4.230783362544367600, 6.425736697338541200, -0.5780161391056699600 ) ) ;
#139 = PRODUCT_DEFINITION_SHAPE ( 'NONE', 'NONE',  #153 ) ;
#140 = DIRECTION ( 'NONE',  ( 1.000000000000000000, 0.0000000000000000000, 0.0000000000000000000 ) ) ;
#141 = PERSON_AND_ORGANIZATION_ROLE ( 'creator' ) ;
#142 = DIRECTION ( 'NONE',  ( 1.000000000000000000, 0.0000000000000000000, 0.0000000000000000000 ) ) ;
#143 = AXIS2_PLACEMENT_3D ( 'NONE', #168, #68, #189 ) ;
#144 = LOCAL_TIME ( 15, 7, 31.00000000000000000, #22 ) ;
#145 = CC_DESIGN_DATE_AND_TIME_ASSIGNMENT ( #61, #211, ( #153 ) ) ;
#146 = PERSON_AND_ORGANIZATION ( #60, #26 ) ;
#147 = CLOSED_SHELL ( 'NONE', ( #76, #232, #177, #159, #54 ) ) ;
#148 = DATE_AND_TIME ( #200, #162 ) ;
#149 = DIRECTION ( 'NONE',  ( 1.000000000000000000, 0.0000000000000000000, -0.0000000000000000000 ) ) ;
#150 = CALENDAR_DATE ( 2019, 16, 1 ) ;
#151 = DIRECTION ( 'NONE',  ( 0.0000000000000000000, 0.0000000000000000000, 1.000000000000000000 ) ) ;
#152 = CARTESIAN_POINT ( 'NONE',  ( 2.498001805406600200E-016, 1.221245327087670000E-015, -0.4253669082825239900 ) ) ;
#153 = PRODUCT_DEFINITION ( 'UNKNOWN', '', #63, #161 ) ;
#154 = DIRECTION ( 'NONE',  ( 0.0000000000000000000, 1.000000000000000000, 2.914889268602070600E-016 ) ) ;
#155 = COORDINATED_UNIVERSAL_TIME_OFFSET ( 2, 0, .AHEAD. ) ;
#156 = CARTESIAN_POINT ( 'NONE',  ( -7.105427357601000300E-015, -1.065814103640150000E-014, -47.60999999999999900 ) ) ;
#157 = APPLICATION_PROTOCOL_DEFINITION ( 'international standard', 'config_control_design', 1994, #14 ) ;
#158 = APPLICATION_PROTOCOL_DEFINITION ( 'international standard', 'config_control_design', 1994, #29 ) ;
#159 = ADVANCED_FACE ( 'NONE', ( #221 ), #163, .T. ) ;
#160 = ORIENTED_EDGE ( 'NONE', *, *, #129, .F. ) ;
#161 = DESIGN_CONTEXT ( 'detailed design', #29, 'design' ) ;
#162 = LOCAL_TIME ( 15, 7, 31.00000000000000000, #155 ) ;
#163 = CYLINDRICAL_SURFACE ( 'NONE', #24, 6.349999999999999600 ) ;
#164 = EDGE_CURVE ( 'NONE', #62, #127, #71, .T. ) ;
#165 = APPROVAL_DATE_TIME ( #148, #36 ) ;
#166 = AXIS2_PLACEMENT_3D ( 'NONE', #13, #10, #140 ) ;
#167 =( NAMED_UNIT ( * ) PLANE_ANGLE_UNIT ( ) SI_UNIT ( $, .RADIAN. ) );
#168 = CARTESIAN_POINT ( 'NONE',  ( 2.498001805406600200E-016, 1.221245327087670000E-015, 2.700000000000000200 ) ) ;
#169 = CC_DESIGN_PERSON_AND_ORGANIZATION_ASSIGNMENT ( #190, #73, ( #97 ) ) ;
#170 = CARTESIAN_POINT ( 'NONE',  ( 6.329422763724386100, 6.425736697338541200, -0.8621613828561779400 ) ) ;
#171 = CARTESIAN_POINT ( 'NONE',  ( 7.444517989483922600E-015, -6.425736697338552800, -0.4356212770483189300 ) ) ;
#172 = ORIENTED_EDGE ( 'NONE', *, *, #129, .T. ) ;
#173 = CARTESIAN_POINT ( 'NONE',  ( 2.117787962882804000, 6.425736697338541200, -0.4356212770483265400 ) ) ;
#174 = SECURITY_CLASSIFICATION_LEVEL ( 'unclassified' ) ;
#175 = APPROVAL_ROLE ( '' ) ;
#176 = CARTESIAN_POINT ( 'NONE',  ( -6.329422763724397600, 6.425736697338541200, -0.8621613828561705000 ) ) ;
#177 = ADVANCED_FACE ( 'NONE', ( #104 ), #21, .F. ) ;
#178 = EDGE_CURVE ( 'NONE', #5, #131, #137, .T. ) ;
#179 = PRODUCT ( '112-1115E UVFS pl-cv 12.7 F-100', '112-1115E UVFS pl-cv 12.7 F-100', '', ( #210 ) ) ;
#180 = PERSON_AND_ORGANIZATION ( #60, #26 ) ;
#181 = CARTESIAN_POINT ( 'NONE',  ( 2.498001805406600200E-016, 1.221245327087670000E-015, -0.4253669082825239900 ) ) ;
#182 = ORIENTED_EDGE ( 'NONE', *, *, #75, .T. ) ;
#183 = CIRCLE ( 'NONE', #218, 6.349999999999999600 ) ;
#184 = DIRECTION ( 'NONE',  ( 1.000000000000000000, 0.0000000000000000000, 0.0000000000000000000 ) ) ;
#185 = EDGE_CURVE ( 'NONE', #5, #216, #81, .T. ) ;
#186 = VECTOR ( 'NONE', #116, 1000.000000000000000 ) ;
#187 = DIRECTION ( 'NONE',  ( -0.0000000000000000000, -0.0000000000000000000, -1.000000000000000000 ) ) ;
#188 = DIRECTION ( 'NONE',  ( 1.000000000000000000, 0.0000000000000000000, 0.0000000000000000000 ) ) ;
#189 = DIRECTION ( 'NONE',  ( 1.000000000000000000, 0.0000000000000000000, 0.0000000000000000000 ) ) ;
#190 = PERSON_AND_ORGANIZATION ( #60, #26 ) ;
#191 = CARTESIAN_POINT ( 'NONE',  ( 2.498001805406600200E-016, 1.221245327087670000E-015, -0.4253669082825239900 ) ) ;
#192 = CARTESIAN_POINT ( 'NONE',  ( 7.623937154270671600E-015, -2.155057776388823700, 0.1460982708880992400 ) ) ;
#193 = CARTESIAN_POINT ( 'NONE',  ( 2.143902957711427200, -2.155057776388824100, 0.1460982708880986200 ) ) ;
#194 = EDGE_LOOP ( 'NONE', ( #58, #46 ) ) ;
#195 = DATE_TIME_ROLE ( 'classification_date' ) ;
#196 = APPROVAL_DATE_TIME ( #15, #132 ) ;
#197 = APPROVAL_PERSON_ORGANIZATION ( #215, #36, #51 ) ;
#198 = AXIS2_PLACEMENT_3D ( 'NONE', #20, #114, #149 ) ;
#199 = FACE_OUTER_BOUND ( 'NONE', #133, .T. ) ;
#200 = CALENDAR_DATE ( 2019, 16, 1 ) ;
#201 = ORIENTED_EDGE ( 'NONE', *, *, #178, .F. ) ;
#202 = DIRECTION ( 'NONE',  ( 0.0000000000000000000, 0.0000000000000000000, 1.000000000000000000 ) ) ;
#203 = CC_DESIGN_DATE_AND_TIME_ASSIGNMENT ( #212, #195, ( #97 ) ) ;
#204 = CARTESIAN_POINT ( 'NONE',  ( -2.143902957711425900, -2.155057776388824600, 0.1460982708881059800 ) ) ;
#205 = CARTESIAN_POINT ( 'NONE',  ( 0.0000000000000000000, 0.0000000000000000000, 0.0000000000000000000 ) ) ;
#206 = APPROVAL_PERSON_ORGANIZATION ( #38, #132, #175 ) ;
#207 = CARTESIAN_POINT ( 'NONE',  ( 6.349999999999999600, 1.221245327087670000E-015, -0.4253669082825239900 ) ) ;
#208 = UNCERTAINTY_MEASURE_WITH_UNIT (LENGTH_MEASURE( 1.000000000000000100E-005 ), #123, 'distance_accuracy_value', 'NONE');
#209 = ORIENTED_EDGE ( 'NONE', *, *, #2, .T. ) ;
#210 = MECHANICAL_CONTEXT ( 'NONE', #14, 'mechanical' ) ;
#211 = DATE_TIME_ROLE ( 'creation_date' ) ;
#212 = DATE_AND_TIME ( #150, #121 ) ;
#213 = CARTESIAN_POINT ( 'NONE',  ( 6.349999999999999600, 1.221245327087670000E-015, -0.4253669082825239900 ) ) ;
#214 = AXIS2_PLACEMENT_3D ( 'NONE', #32, #57, #142 ) ;
#215 = PERSON_AND_ORGANIZATION ( #60, #26 ) ;
#216 = VERTEX_POINT ( 'NONE', #28 ) ;
#217 = DIRECTION ( 'NONE',  ( 0.0000000000000000000, 0.0000000000000000000, 1.000000000000000000 ) ) ;
#218 = AXIS2_PLACEMENT_3D ( 'NONE', #47, #187, #135 ) ;
#219 = SHAPE_DEFINITION_REPRESENTATION ( #139, #42 ) ;
#220 = EDGE_LOOP ( 'NONE', ( #160, #34, #110, #92, #227 ) ) ;
#221 = FACE_OUTER_BOUND ( 'NONE', #220, .T. ) ;
#222 = PLANE ( 'NONE',  #198 ) ;
#223 = CARTESIAN_POINT ( 'NONE',  ( 7.447680733947128900E-015, 6.349999999999974800, -0.4253669082825230500 ) ) ;
#224 = CARTESIAN_POINT ( 'NONE',  ( -6.349999999999999600, 1.998896044546239400E-015, -0.4253669082825239900 ) ) ;
#225 = CARTESIAN_POINT ( 'NONE',  ( -8.673617379884034500E-016, -2.155057776388824100, 0.1460982708881057300 ) ) ;
#226 = CYLINDRICAL_SURFACE ( 'NONE', #7, 6.349999999999999600 ) ;
#227 = ORIENTED_EDGE ( 'NONE', *, *, #37, .T. ) ;
#228 = CARTESIAN_POINT ( 'NONE',  ( 6.329422763724387800, -6.425736697338552800, -0.8621613828561710500 ) ) ;
#229 = CIRCLE ( 'NONE', #143, 6.349999999999999600 ) ;
#230 = CARTESIAN_POINT ( 'NONE',  ( 2.143902957711427200, 2.155057776388813900, 0.1460982708880925700 ) ) ;
#231 = PERSON_AND_ORGANIZATION_ROLE ( 'creator' ) ;
#232 = ADVANCED_FACE ( 'NONE', ( #35 ), #226, .T. ) ;
#233 = CALENDAR_DATE ( 2019, 16, 1 ) ;
#234 = ORIENTED_EDGE ( 'NONE', *, *, #75, .F. ) ;
#235 =( BOUNDED_SURFACE ( )  B_SPLINE_SURFACE ( 3, 3, ( 
 ( #176, #59, #41, #115 ),
 ( #4, #44, #3, #117 ),
 ( #65, #8, #204, #225 ),
 ( #118, #96, #83, #95 ) ),
 .UNSPECIFIED., .F., .F., .F. ) 
 B_SPLINE_SURFACE_WITH_KNOTS ( ( 4, 4 ),
 ( 4, 4 ),
 ( 0.0000000000000000000, 1.000000000000000000 ),
 ( 0.0000000000000000000, 1.000000000000000000 ),
 .UNSPECIFIED. ) 
 GEOMETRIC_REPRESENTATION_ITEM ( )  RATIONAL_B_SPLINE_SURFACE ( (
 ( 1.000000000000000000, 0.9984913304809142100, 0.9984913304809142100, 1.000000000000000000),
 ( 0.9939001431485217100, 0.9924006762975384800, 0.9924006762975384800, 0.9939001431485217100),
 ( 0.9939001431485217100, 0.9924006762975384800, 0.9924006762975384800, 0.9939001431485217100),
 ( 1.000000000000000000, 0.9984913304809142100, 0.9984913304809142100, 1.000000000000000000) ) ) 
 REPRESENTATION_ITEM ( '' )  SURFACE ( )  );
ENDSEC;
END-ISO-10303-21;
