ISO-10303-21;
HEADER;
FILE_DESCRIPTION (( 'STEP AP203' ),
    '1' );
FILE_NAME ('112-1114E UVFS pl-cv 12.7 F-90.STEP',
    '2019-01-16T12:46:28',
    ( '' ),
    ( '' ),
    'SwSTEP 2.0',
    'SolidWorks 2017',
    '' );
FILE_SCHEMA (( 'CONFIG_CONTROL_DESIGN' ));
ENDSEC;

DATA;
#1 = APPLICATION_PROTOCOL_DEFINITION ( 'international standard', 'config_control_design', 1994, #108 ) ;
#2 = DIRECTION ( 'NONE',  ( 1.000000000000000000, 0.0000000000000000000, 0.0000000000000000000 ) ) ;
#3 = DIRECTION ( 'NONE',  ( 1.000000000000000000, 0.0000000000000000000, 0.0000000000000000000 ) ) ;
#4 = APPROVAL_ROLE ( '' ) ;
#5 = CIRCLE ( 'NONE', #37, 42.85000000000000100 ) ;
#6 = CARTESIAN_POINT ( 'NONE',  ( 2.147358969697065400, 2.158144322370878900, 0.1627337046664054900 ) ) ;
#7 = AXIS2_PLACEMENT_3D ( 'NONE', #42, #89, #3 ) ;
#8 = CC_DESIGN_PERSON_AND_ORGANIZATION_ASSIGNMENT ( #194, #72, ( #126 ) ) ;
#9 = DATE_AND_TIME ( #106, #149 ) ;
#10 = DIRECTION ( 'NONE',  ( 1.000000000000000000, 0.0000000000000000000, -0.0000000000000000000 ) ) ;
#11 = CC_DESIGN_DATE_AND_TIME_ASSIGNMENT ( #142, #38, ( #126 ) ) ;
#12 = LINE ( 'NONE', #158, #65 ) ;
#13 = ORIENTED_EDGE ( 'NONE', *, *, #123, .T. ) ;
#14 = AXIS2_PLACEMENT_3D ( 'NONE', #207, #98, #150 ) ;
#15 = CARTESIAN_POINT ( 'NONE',  ( 8.673617379884035500E-016, 6.425627081475603600, -0.4845209326058952400 ) ) ;
#16 = ADVANCED_BREP_SHAPE_REPRESENTATION ( '112-1114E UVFS pl-cv 12.7 F-90', ( #100, #206 ), #75 ) ;
#17 = CARTESIAN_POINT ( 'NONE',  ( 4.288710922068336400, -2.158144322370872300, 0.002227129056133933900 ) ) ;
#18 = COORDINATED_UNIVERSAL_TIME_OFFSET ( 2, 0, .AHEAD. ) ;
#19 = DIRECTION ( 'NONE',  ( 0.0000000000000000000, 0.0000000000000000000, 1.000000000000000000 ) ) ;
#20 = CC_DESIGN_PERSON_AND_ORGANIZATION_ASSIGNMENT ( #139, #143, ( #222 ) ) ;
#21 = ORIENTED_EDGE ( 'NONE', *, *, #99, .T. ) ;
#22 = CARTESIAN_POINT ( 'NONE',  ( 6.412075430496750900, 2.158144322370877600, -0.3178880206711886500 ) ) ;
#23 = DATE_TIME_ROLE ( 'creation_date' ) ;
#24 = SHAPE_DEFINITION_REPRESENTATION ( #94, #16 ) ;
#25 = EDGE_CURVE ( 'NONE', #79, #221, #120, .T. ) ;
#26 = LOCAL_TIME ( 14, 46, 28.00000000000000000, #216 ) ;
#27 = EDGE_LOOP ( 'NONE', ( #145, #30 ) ) ;
#28 = CARTESIAN_POINT ( 'NONE',  ( 1.065814103640150000E-014, 6.350000000000010300, -0.4731195107520927400 ) ) ;
#29 = CARTESIAN_POINT ( 'NONE',  ( 2.498001805406600200E-016, 1.221245327087670000E-015, 2.600000000000000500 ) ) ;
#30 = ORIENTED_EDGE ( 'NONE', *, *, #48, .F. ) ;
#31 = PERSON_AND_ORGANIZATION ( #227, #152 ) ;
#32 = EDGE_CURVE ( 'NONE', #174, #221, #181, .T. ) ;
#33 = ORIENTED_EDGE ( 'NONE', *, *, #226, .F. ) ;
#34 = VERTEX_POINT ( 'NONE', #28 ) ;
#35 = CARTESIAN_POINT ( 'NONE',  ( 8.673617379884034500E-016, 2.158144322370878100, 0.1627337046664075700 ) ) ;
#36 = CARTESIAN_POINT ( 'NONE',  ( 0.0000000000000000000, 0.0000000000000000000, 0.0000000000000000000 ) ) ;
#37 = AXIS2_PLACEMENT_3D ( 'NONE', #87, #219, #185 ) ;
#38 = DATE_TIME_ROLE ( 'classification_date' ) ;
#39 =( LENGTH_UNIT ( ) NAMED_UNIT ( * ) SI_UNIT ( .MILLI., .METRE. ) );
#40 = DATE_AND_TIME ( #101, #156 ) ;
#41 = CARTESIAN_POINT ( 'NONE',  ( 0.0000000000000000000, -6.425627081475596500, -0.4845209326059093400 ) ) ;
#42 = CARTESIAN_POINT ( 'NONE',  ( 2.498001805406600200E-016, 1.221245327087670000E-015, -0.4731195107520910200 ) ) ;
#43 =( NAMED_UNIT ( * ) SI_UNIT ( $, .STERADIAN. ) SOLID_ANGLE_UNIT ( ) );
#44 = CC_DESIGN_APPROVAL ( #214, ( #222 ) ) ;
#45 = APPROVAL_STATUS ( 'not_yet_approved' ) ;
#46 = CYLINDRICAL_SURFACE ( 'NONE', #86, 6.349999999999999600 ) ;
#47 = FACE_OUTER_BOUND ( 'NONE', #114, .T. ) ;
#48 = EDGE_CURVE ( 'NONE', #221, #174, #170, .T. ) ;
#49 = CIRCLE ( 'NONE', #61, 6.349999999999999600 ) ;
#50 = EDGE_LOOP ( 'NONE', ( #21, #71, #82, #131, #33 ) ) ;
#51 = CARTESIAN_POINT ( 'NONE',  ( -2.147358969697065400, 2.158144322370879400, 0.1627337046664071600 ) ) ;
#52 = CALENDAR_DATE ( 2019, 16, 1 ) ;
#53 = DIRECTION ( 'NONE',  ( 0.0000000000000000000, 0.0000000000000000000, 1.000000000000000000 ) ) ;
#54 = CARTESIAN_POINT ( 'NONE',  ( 0.0000000000000000000, -2.158144322370870900, 0.1627337046663950600 ) ) ;
#55 = CARTESIAN_POINT ( 'NONE',  ( 4.224174497778524700, 6.425627081475603600, -0.6426122089215394700 ) ) ;
#56 = APPLICATION_CONTEXT ( 'configuration controlled 3d designs of mechanical parts and assemblies' ) ;
#57 = PERSON_AND_ORGANIZATION_ROLE ( 'design_supplier' ) ;
#58 = APPROVAL_PERSON_ORGANIZATION ( #169, #214, #68 ) ;
#59 = EDGE_CURVE ( 'NONE', #34, #79, #73, .T. ) ;
#60 = ORIENTED_EDGE ( 'NONE', *, *, #157, .T. ) ;
#61 = AXIS2_PLACEMENT_3D ( 'NONE', #67, #138, #103 ) ;
#62 = PRODUCT ( '112-1114E UVFS pl-cv 12.7 F-90', '112-1114E UVFS pl-cv 12.7 F-90', '', ( #203 ) ) ;
#63 = AXIS2_PLACEMENT_3D ( 'NONE', #29, #147, #80 ) ;
#64 = APPROVAL_DATE_TIME ( #130, #177 ) ;
#65 = VECTOR ( 'NONE', #53, 1000.000000000000000 ) ;
#66 = CARTESIAN_POINT ( 'NONE',  ( 2.115045560822196100, -6.425627081475596500, -0.4845209326059113400 ) ) ;
#67 = CARTESIAN_POINT ( 'NONE',  ( 2.498001805406600200E-016, 1.221245327087670000E-015, -0.4731195107520910200 ) ) ;
#68 = APPROVAL_ROLE ( '' ) ;
#69 = CARTESIAN_POINT ( 'NONE',  ( 1.065814103640150000E-014, 6.425627081475603600, -0.4845209326058974600 ) ) ;
#70 = CALENDAR_DATE ( 2019, 16, 1 ) ;
#71 = ORIENTED_EDGE ( 'NONE', *, *, #59, .T. ) ;
#72 = PERSON_AND_ORGANIZATION_ROLE ( 'classification_officer' ) ;
#73 = CIRCLE ( 'NONE', #167, 6.349999999999999600 ) ;
#74 = VERTEX_POINT ( 'NONE', #135 ) ;
#75 =( GEOMETRIC_REPRESENTATION_CONTEXT ( 3 ) GLOBAL_UNCERTAINTY_ASSIGNED_CONTEXT ( ( #209 ) ) GLOBAL_UNIT_ASSIGNED_CONTEXT ( ( #39, #183, #43 ) ) REPRESENTATION_CONTEXT ( 'NONE', 'WORKASPACE' ) );
#76 = APPROVAL_DATE_TIME ( #125, #214 ) ;
#77 = FACE_OUTER_BOUND ( 'NONE', #27, .T. ) ;
#78 = APPROVAL_PERSON_ORGANIZATION ( #95, #177, #124 ) ;
#79 = VERTEX_POINT ( 'NONE', #190 ) ;
#80 = DIRECTION ( 'NONE',  ( 1.000000000000000000, 0.0000000000000000000, 0.0000000000000000000 ) ) ;
#81 = PLANE ( 'NONE',  #228 ) ;
#82 = ORIENTED_EDGE ( 'NONE', *, *, #25, .T. ) ;
#83 = EDGE_LOOP ( 'NONE', ( #161, #163, #232 ) ) ;
#84 = CARTESIAN_POINT ( 'NONE',  ( -4.288710922068349700, -2.158144322370872300, 0.002227129056134259100 ) ) ;
#85 = DIRECTION ( 'NONE',  ( 0.0000000000000000000, 0.0000000000000000000, 1.000000000000000000 ) ) ;
#86 = AXIS2_PLACEMENT_3D ( 'NONE', #184, #217, #204 ) ;
#87 = CARTESIAN_POINT ( 'NONE',  ( 1.065814103640150000E-014, 1.065814103640150000E-014, -42.85000000000000100 ) ) ;
#88 = CARTESIAN_POINT ( 'NONE',  ( 1.065814103640149800E-014, 2.158144322370877600, 0.1627337046664055200 ) ) ;
#89 = DIRECTION ( 'NONE',  ( 0.0000000000000000000, 0.0000000000000000000, 1.000000000000000000 ) ) ;
#90 = FACE_OUTER_BOUND ( 'NONE', #50, .T. ) ;
#91 = APPROVAL_STATUS ( 'not_yet_approved' ) ;
#92 = ADVANCED_FACE ( 'NONE', ( #77 ), #81, .T. ) ;
#93 = CALENDAR_DATE ( 2019, 16, 1 ) ;
#94 = PRODUCT_DEFINITION_SHAPE ( 'NONE', 'NONE',  #140 ) ;
#95 = PERSON_AND_ORGANIZATION ( #227, #152 ) ;
#96 = ORIENTED_EDGE ( 'NONE', *, *, #25, .F. ) ;
#97 = COORDINATED_UNIVERSAL_TIME_OFFSET ( 2, 0, .AHEAD. ) ;
#98 = DIRECTION ( 'NONE',  ( -0.0000000000000000000, -0.0000000000000000000, -1.000000000000000000 ) ) ;
#99 = EDGE_CURVE ( 'NONE', #74, #34, #159, .T. ) ;
#100 = MANIFOLD_SOLID_BREP ( 'Imported1', #195 ) ;
#101 = CALENDAR_DATE ( 2019, 16, 1 ) ;
#102 = CYLINDRICAL_SURFACE ( 'NONE', #168, 6.349999999999999600 ) ;
#103 = DIRECTION ( 'NONE',  ( 1.000000000000000000, 0.0000000000000000000, 0.0000000000000000000 ) ) ;
#104 = CARTESIAN_POINT ( 'NONE',  ( -2.115045560822196500, 6.425627081475603600, -0.4845209326058957400 ) ) ;
#105 = CARTESIAN_POINT ( 'NONE',  ( -6.412075430496773100, 2.158144322370877600, -0.3178880206711921000 ) ) ;
#106 = CALENDAR_DATE ( 2019, 16, 1 ) ;
#107 = EDGE_CURVE ( 'NONE', #79, #110, #117, .T. ) ;
#108 = APPLICATION_CONTEXT ( 'configuration controlled 3d designs of mechanical parts and assemblies' ) ;
#109 = DIRECTION ( 'NONE',  ( 0.0000000000000000000, 0.0000000000000000000, 1.000000000000000000 ) ) ;
#110 = VERTEX_POINT ( 'NONE', #208 ) ;
#111 = CARTESIAN_POINT ( 'NONE',  ( 4.288710922068339000, 2.158144322370878900, 0.002227129056146348400 ) ) ;
#112 = CARTESIAN_POINT ( 'NONE',  ( -4.224174497778536300, -6.425627081475596500, -0.6426122089215529100 ) ) ;
#113 = PERSON_AND_ORGANIZATION ( #227, #152 ) ;
#114 = EDGE_LOOP ( 'NONE', ( #136, #13, #153 ) ) ;
#115 = PERSON_AND_ORGANIZATION ( #227, #152 ) ;
#116 = DIRECTION ( 'NONE',  ( 0.0000000000000000000, 0.0000000000000000000, 1.000000000000000000 ) ) ;
#117 = CIRCLE ( 'NONE', #7, 6.349999999999999600 ) ;
#118 = CARTESIAN_POINT ( 'NONE',  ( 2.498001805406600200E-016, 1.221245327087670000E-015, -0.4731195107520910200 ) ) ;
#119 = CC_DESIGN_PERSON_AND_ORGANIZATION_ASSIGNMENT ( #31, #57, ( #222 ) ) ;
#120 = LINE ( 'NONE', #146, #165 ) ;
#121 = CARTESIAN_POINT ( 'NONE',  ( 2.498001805406600200E-016, 1.221245327087670000E-015, -0.4731195107520910200 ) ) ;
#122 = CARTESIAN_POINT ( 'NONE',  ( 2.498001805406600200E-016, 1.221245327087670000E-015, -0.4731195107520910200 ) ) ;
#123 = EDGE_CURVE ( 'NONE', #34, #110, #5, .T. ) ;
#124 = APPROVAL_ROLE ( '' ) ;
#125 = DATE_AND_TIME ( #52, #192 ) ;
#126 = SECURITY_CLASSIFICATION ( '', '', #187 ) ;
#127 = CARTESIAN_POINT ( 'NONE',  ( -6.315586665438843300, -6.425627081475596500, -0.9579102731656769000 ) ) ;
#128 = PERSON_AND_ORGANIZATION_ROLE ( 'creator' ) ;
#129 = CARTESIAN_POINT ( 'NONE',  ( 1.065814103640149800E-014, -2.158144322370871400, 0.1627337046663929800 ) ) ;
#130 = DATE_AND_TIME ( #93, #231 ) ;
#131 = ORIENTED_EDGE ( 'NONE', *, *, #48, .T. ) ;
#132 = ADVANCED_FACE ( 'NONE', ( #90 ), #46, .T. ) ;
#133 = APPROVAL_PERSON_ORGANIZATION ( #180, #151, #4 ) ;
#134 = ORIENTED_EDGE ( 'NONE', *, *, #107, .T. ) ;
#135 = CARTESIAN_POINT ( 'NONE',  ( 6.349999999999999600, 1.221245327087670000E-015, -0.4731195107520910200 ) ) ;
#136 = ORIENTED_EDGE ( 'NONE', *, *, #59, .F. ) ;
#137 = CARTESIAN_POINT ( 'NONE',  ( -4.288710922068349700, 2.158144322370878900, 0.002227129056146728300 ) ) ;
#138 = DIRECTION ( 'NONE',  ( 0.0000000000000000000, 0.0000000000000000000, 1.000000000000000000 ) ) ;
#139 = PERSON_AND_ORGANIZATION ( #227, #152 ) ;
#140 = PRODUCT_DEFINITION ( 'UNKNOWN', '', #222, #162 ) ;
#141 = CARTESIAN_POINT ( 'NONE',  ( 2.147358969697064500, -2.158144322370872300, 0.1627337046663930900 ) ) ;
#142 = DATE_AND_TIME ( #70, #26 ) ;
#143 = PERSON_AND_ORGANIZATION_ROLE ( 'creator' ) ;
#144 = ADVANCED_FACE ( 'NONE', ( #212 ), #154, .F. ) ;
#145 = ORIENTED_EDGE ( 'NONE', *, *, #32, .F. ) ;
#146 = CARTESIAN_POINT ( 'NONE',  ( -6.349999999999999600, 1.998896044546239400E-015, -0.4731195107520910200 ) ) ;
#147 = DIRECTION ( 'NONE',  ( -0.0000000000000000000, -0.0000000000000000000, -1.000000000000000000 ) ) ;
#148 = CARTESIAN_POINT ( 'NONE',  ( 0.0000000000000000000, 13.15799999999999900, 2.600000000000000500 ) ) ;
#149 = LOCAL_TIME ( 14, 46, 28.00000000000000000, #224 ) ;
#150 = DIRECTION ( 'NONE',  ( 1.000000000000000000, 0.0000000000000000000, 0.0000000000000000000 ) ) ;
#151 = APPROVAL ( #218, 'UNSPECIFIED' ) ;
#152 = ORGANIZATION ( 'UNSPECIFIED', 'UNSPECIFIED', '' ) ;
#153 = ORIENTED_EDGE ( 'NONE', *, *, #107, .F. ) ;
#154 =( BOUNDED_SURFACE ( )  B_SPLINE_SURFACE ( 3, 3, ( 
 ( #69, #200, #55, #199 ),
 ( #88, #6, #111, #22 ),
 ( #129, #141, #17, #176 ),
 ( #173, #66, #197, #233 ) ),
 .UNSPECIFIED., .F., .F., .F. ) 
 B_SPLINE_SURFACE_WITH_KNOTS ( ( 4, 4 ),
 ( 4, 4 ),
 ( 0.0000000000000000000, 1.000000000000000000 ),
 ( 0.0000000000000000000, 1.000000000000000000 ),
 .UNSPECIFIED. ) 
 GEOMETRIC_REPRESENTATION_ITEM ( )  RATIONAL_B_SPLINE_SURFACE ( (
 ( 1.000000000000000000, 0.9981350681121785600, 0.9981350681121785600, 1.000000000000000000),
 ( 0.9924617513402426100, 0.9906108777727250500, 0.9906108777727250500, 0.9924617513402426100),
 ( 0.9924617513402426100, 0.9906108777727250500, 0.9906108777727250500, 0.9924617513402426100),
 ( 1.000000000000000000, 0.9981350681121785600, 0.9981350681121785600, 1.000000000000000000) ) ) 
 REPRESENTATION_ITEM ( '' )  SURFACE ( )  );
#155 = CARTESIAN_POINT ( 'NONE',  ( -6.412075430496772200, -2.158144322370871400, -0.3178880206712045900 ) ) ;
#156 = LOCAL_TIME ( 14, 46, 28.00000000000000000, #18 ) ;
#157 = EDGE_CURVE ( 'NONE', #110, #74, #49, .T. ) ;
#158 = CARTESIAN_POINT ( 'NONE',  ( 6.349999999999999600, 1.221245327087670000E-015, -0.4731195107520910200 ) ) ;
#159 = CIRCLE ( 'NONE', #215, 6.349999999999999600 ) ;
#160 = CC_DESIGN_APPROVAL ( #177, ( #126 ) ) ;
#161 = ORIENTED_EDGE ( 'NONE', *, *, #123, .F. ) ;
#162 = DESIGN_CONTEXT ( 'detailed design', #108, 'design' ) ;
#163 = ORIENTED_EDGE ( 'NONE', *, *, #99, .F. ) ;
#164 = DIRECTION ( 'NONE',  ( 0.0000000000000000000, 0.0000000000000000000, 1.000000000000000000 ) ) ;
#165 = VECTOR ( 'NONE', #225, 1000.000000000000000 ) ;
#166 = ORIENTED_EDGE ( 'NONE', *, *, #226, .T. ) ;
#167 = AXIS2_PLACEMENT_3D ( 'NONE', #118, #164, #229 ) ;
#168 = AXIS2_PLACEMENT_3D ( 'NONE', #121, #85, #211 ) ;
#169 = PERSON_AND_ORGANIZATION ( #227, #152 ) ;
#170 = CIRCLE ( 'NONE', #63, 6.349999999999999600 ) ;
#171 = PRODUCT_RELATED_PRODUCT_CATEGORY ( 'detail', '', ( #62 ) ) ;
#172 = CARTESIAN_POINT ( 'NONE',  ( -6.349999999999999600, 1.998896044546239400E-015, 2.600000000000000500 ) ) ;
#173 = CARTESIAN_POINT ( 'NONE',  ( 1.065814103640150000E-014, -6.425627081475596500, -0.4845209326059113400 ) ) ;
#174 = VERTEX_POINT ( 'NONE', #196 ) ;
#175 = CARTESIAN_POINT ( 'NONE',  ( -4.224174497778537200, 6.425627081475603600, -0.6426122089215390300 ) ) ;
#176 = CARTESIAN_POINT ( 'NONE',  ( 6.412075430496748200, -2.158144322370871400, -0.3178880206712008100 ) ) ;
#177 = APPROVAL ( #91, 'UNSPECIFIED' ) ;
#178 = CARTESIAN_POINT ( 'NONE',  ( -2.115045560822197000, -6.425627081475596500, -0.4845209326059098900 ) ) ;
#179 =( BOUNDED_SURFACE ( )  B_SPLINE_SURFACE ( 3, 3, ( 
 ( #213, #175, #104, #15 ),
 ( #105, #137, #51, #35 ),
 ( #155, #84, #205, #54 ),
 ( #127, #112, #178, #41 ) ),
 .UNSPECIFIED., .F., .F., .F. ) 
 B_SPLINE_SURFACE_WITH_KNOTS ( ( 4, 4 ),
 ( 4, 4 ),
 ( 0.0000000000000000000, 1.000000000000000000 ),
 ( 0.0000000000000000000, 1.000000000000000000 ),
 .UNSPECIFIED. ) 
 GEOMETRIC_REPRESENTATION_ITEM ( )  RATIONAL_B_SPLINE_SURFACE ( (
 ( 1.000000000000000000, 0.9981350681121785600, 0.9981350681121785600, 1.000000000000000000),
 ( 0.9924617513402426100, 0.9906108777727250500, 0.9906108777727250500, 0.9924617513402426100),
 ( 0.9924617513402426100, 0.9906108777727250500, 0.9906108777727250500, 0.9924617513402426100),
 ( 1.000000000000000000, 0.9981350681121785600, 0.9981350681121785600, 1.000000000000000000) ) ) 
 REPRESENTATION_ITEM ( '' )  SURFACE ( )  );
#180 = PERSON_AND_ORGANIZATION ( #227, #152 ) ;
#181 = CIRCLE ( 'NONE', #14, 6.349999999999999600 ) ;
#182 = CC_DESIGN_PERSON_AND_ORGANIZATION_ASSIGNMENT ( #113, #128, ( #140 ) ) ;
#183 =( NAMED_UNIT ( * ) PLANE_ANGLE_UNIT ( ) SI_UNIT ( $, .RADIAN. ) );
#184 = CARTESIAN_POINT ( 'NONE',  ( 2.498001805406600200E-016, 1.221245327087670000E-015, -0.4731195107520910200 ) ) ;
#185 = DIRECTION ( 'NONE',  ( 0.0000000000000000000, 1.000000000000000000, -3.238690270201740300E-016 ) ) ;
#186 = APPLICATION_PROTOCOL_DEFINITION ( 'international standard', 'config_control_design', 1994, #56 ) ;
#187 = SECURITY_CLASSIFICATION_LEVEL ( 'unclassified' ) ;
#188 = FACE_OUTER_BOUND ( 'NONE', #202, .T. ) ;
#189 = CC_DESIGN_SECURITY_CLASSIFICATION ( #126, ( #222 ) ) ;
#190 = CARTESIAN_POINT ( 'NONE',  ( -6.349999999999999600, 1.998896044546239400E-015, -0.4731195107520910200 ) ) ;
#191 = CC_DESIGN_PERSON_AND_ORGANIZATION_ASSIGNMENT ( #115, #198, ( #62 ) ) ;
#192 = LOCAL_TIME ( 14, 46, 28.00000000000000000, #97 ) ;
#193 = CC_DESIGN_DATE_AND_TIME_ASSIGNMENT ( #9, #23, ( #140 ) ) ;
#194 = PERSON_AND_ORGANIZATION ( #227, #152 ) ;
#195 = CLOSED_SHELL ( 'NONE', ( #223, #132, #144, #220, #92 ) ) ;
#196 = CARTESIAN_POINT ( 'NONE',  ( 6.349999999999999600, 1.221245327087670000E-015, 2.600000000000000500 ) ) ;
#197 = CARTESIAN_POINT ( 'NONE',  ( 4.224174497778522900, -6.425627081475596500, -0.6426122089215533500 ) ) ;
#198 = PERSON_AND_ORGANIZATION_ROLE ( 'design_owner' ) ;
#199 = CARTESIAN_POINT ( 'NONE',  ( 6.315586665438822000, 6.425627081475603600, -0.9579102731656595800 ) ) ;
#200 = CARTESIAN_POINT ( 'NONE',  ( 2.115045560822196500, 6.425627081475603600, -0.4845209326058974600 ) ) ;
#201 = APPROVAL_DATE_TIME ( #40, #151 ) ;
#202 = EDGE_LOOP ( 'NONE', ( #96, #134, #60, #166, #230 ) ) ;
#203 = MECHANICAL_CONTEXT ( 'NONE', #56, 'mechanical' ) ;
#204 = DIRECTION ( 'NONE',  ( 1.000000000000000000, 0.0000000000000000000, 0.0000000000000000000 ) ) ;
#205 = CARTESIAN_POINT ( 'NONE',  ( -2.147358969697065900, -2.158144322370871400, 0.1627337046663944700 ) ) ;
#206 = AXIS2_PLACEMENT_3D ( 'NONE', #36, #109, #2 ) ;
#207 = CARTESIAN_POINT ( 'NONE',  ( 2.498001805406600200E-016, 1.221245327087670000E-015, 2.600000000000000500 ) ) ;
#208 = CARTESIAN_POINT ( 'NONE',  ( 1.065814103640150000E-014, -6.349999999999999600, -0.4731195107520927400 ) ) ;
#209 = UNCERTAINTY_MEASURE_WITH_UNIT (LENGTH_MEASURE( 1.000000000000000100E-005 ), #39, 'distance_accuracy_value', 'NONE');
#210 = CC_DESIGN_APPROVAL ( #151, ( #140 ) ) ;
#211 = DIRECTION ( 'NONE',  ( 1.000000000000000000, 0.0000000000000000000, 0.0000000000000000000 ) ) ;
#212 = FACE_OUTER_BOUND ( 'NONE', #83, .T. ) ;
#213 = CARTESIAN_POINT ( 'NONE',  ( -6.315586665438845100, 6.425627081475603600, -0.9579102731656630200 ) ) ;
#214 = APPROVAL ( #45, 'UNSPECIFIED' ) ;
#215 = AXIS2_PLACEMENT_3D ( 'NONE', #122, #19, #235 ) ;
#216 = COORDINATED_UNIVERSAL_TIME_OFFSET ( 2, 0, .AHEAD. ) ;
#217 = DIRECTION ( 'NONE',  ( 0.0000000000000000000, 0.0000000000000000000, 1.000000000000000000 ) ) ;
#218 = APPROVAL_STATUS ( 'not_yet_approved' ) ;
#219 = DIRECTION ( 'NONE',  ( 1.000000000000000000, 0.0000000000000000000, 0.0000000000000000000 ) ) ;
#220 = ADVANCED_FACE ( 'NONE', ( #188 ), #102, .T. ) ;
#221 = VERTEX_POINT ( 'NONE', #172 ) ;
#222 = PRODUCT_DEFINITION_FORMATION_WITH_SPECIFIED_SOURCE ( 'ANY', '', #62, .NOT_KNOWN. ) ;
#223 = ADVANCED_FACE ( 'NONE', ( #47 ), #179, .F. ) ;
#224 = COORDINATED_UNIVERSAL_TIME_OFFSET ( 2, 0, .AHEAD. ) ;
#225 = DIRECTION ( 'NONE',  ( 0.0000000000000000000, 0.0000000000000000000, 1.000000000000000000 ) ) ;
#226 = EDGE_CURVE ( 'NONE', #74, #174, #12, .T. ) ;
#227 = PERSON ( 'UNSPECIFIED', 'UNSPECIFIED', 'UNSPECIFIED', ('UNSPECIFIED'), ('UNSPECIFIED'), ('UNSPECIFIED') ) ;
#228 = AXIS2_PLACEMENT_3D ( 'NONE', #148, #116, #10 ) ;
#229 = DIRECTION ( 'NONE',  ( 1.000000000000000000, 0.0000000000000000000, 0.0000000000000000000 ) ) ;
#230 = ORIENTED_EDGE ( 'NONE', *, *, #32, .T. ) ;
#231 = LOCAL_TIME ( 14, 46, 28.00000000000000000, #234 ) ;
#232 = ORIENTED_EDGE ( 'NONE', *, *, #157, .F. ) ;
#233 = CARTESIAN_POINT ( 'NONE',  ( 6.315586665438819300, -6.425627081475596500, -0.9579102731656732300 ) ) ;
#234 = COORDINATED_UNIVERSAL_TIME_OFFSET ( 2, 0, .AHEAD. ) ;
#235 = DIRECTION ( 'NONE',  ( 1.000000000000000000, 0.0000000000000000000, 0.0000000000000000000 ) ) ;
ENDSEC;
END-ISO-10303-21;
