ISO-10303-21;
HEADER;
FILE_DESCRIPTION (( 'STEP AP203' ),
    '1' );
FILE_NAME ('112-1112E UVFS pl-cv 12.7 F-80.STEP',
    '2019-01-16T12:34:52',
    ( '' ),
    ( '' ),
    'SwSTEP 2.0',
    'SolidWorks 2017',
    '' );
FILE_SCHEMA (( 'CONFIG_CONTROL_DESIGN' ));
ENDSEC;

DATA;
#1 = CARTESIAN_POINT ( 'NONE',  ( -4.214900726469813300, 6.425473222214774800, -0.7235291009765169000 ) ) ;
#2 = LOCAL_TIME ( 14, 34, 52.00000000000000000, #157 ) ;
#3 = EDGE_CURVE ( 'NONE', #74, #109, #15, .T. ) ;
#4 = CC_DESIGN_DATE_AND_TIME_ASSIGNMENT ( #184, #131, ( #145 ) ) ;
#5 = DIRECTION ( 'NONE',  ( 1.000000000000000000, 0.0000000000000000000, 0.0000000000000000000 ) ) ;
#6 = ORIENTED_EDGE ( 'NONE', *, *, #3, .F. ) ;
#7 = CARTESIAN_POINT ( 'NONE',  ( 2.498001805406600200E-016, 1.221245327087670000E-015, -0.5330352664116370100 ) ) ;
#8 = CARTESIAN_POINT ( 'NONE',  ( -4.214900726469808800, -6.425473222214767700, -0.7235291009765169000 ) ) ;
#9 = EDGE_CURVE ( 'NONE', #72, #74, #102, .T. ) ;
#10 = CALENDAR_DATE ( 2019, 16, 1 ) ;
#11 = LOCAL_TIME ( 14, 34, 52.00000000000000000, #55 ) ;
#12 = CARTESIAN_POINT ( 'NONE',  ( 4.214900726469788400, -6.425473222214764100, -0.7235291009765089100 ) ) ;
#13 = LINE ( 'NONE', #112, #174 ) ;
#14 = CARTESIAN_POINT ( 'NONE',  ( 2.498001805406600200E-016, 1.221245327087670000E-015, 2.600000000000000500 ) ) ;
#15 = CIRCLE ( 'NONE', #191, 6.349999999999999600 ) ;
#16 = APPROVAL_STATUS ( 'not_yet_approved' ) ;
#17 = APPROVAL_DATE_TIME ( #42, #176 ) ;
#18 = CC_DESIGN_PERSON_AND_ORGANIZATION_ASSIGNMENT ( #218, #208, ( #145 ) ) ;
#19 = ADVANCED_FACE ( 'NONE', ( #202 ), #178, .F. ) ;
#20 = AXIS2_PLACEMENT_3D ( 'NONE', #65, #49, #98 ) ;
#21 = ORIENTED_EDGE ( 'NONE', *, *, #175, .F. ) ;
#22 = CC_DESIGN_SECURITY_CLASSIFICATION ( #145, ( #70 ) ) ;
#23 = CARTESIAN_POINT ( 'NONE',  ( -2.152220786133620700, 2.162485026013591900, 0.1837132306652321200 ) ) ;
#24 = DIRECTION ( 'NONE',  ( 0.0000000000000000000, 0.0000000000000000000, 1.000000000000000000 ) ) ;
#25 = LOCAL_TIME ( 14, 34, 52.00000000000000000, #199 ) ;
#26 = CARTESIAN_POINT ( 'NONE',  ( 6.296196088459393700, -6.425473222214763200, -1.077578994528471100 ) ) ;
#27 = CARTESIAN_POINT ( 'NONE',  ( 6.418548771387340100, -2.162485026013579100, -0.3583242337088673500 ) ) ;
#28 = CARTESIAN_POINT ( 'NONE',  ( 0.0000000000000000000, 13.15799999999999900, 2.600000000000000500 ) ) ;
#29 = EDGE_LOOP ( 'NONE', ( #222, #35 ) ) ;
#30 = MECHANICAL_CONTEXT ( 'NONE', #68, 'mechanical' ) ;
#31 =( LENGTH_UNIT ( ) NAMED_UNIT ( * ) SI_UNIT ( .MILLI., .METRE. ) );
#32 = APPROVAL_ROLE ( '' ) ;
#33 = ADVANCED_FACE ( 'NONE', ( #231 ), #104, .T. ) ;
#34 = CYLINDRICAL_SURFACE ( 'NONE', #110, 6.349999999999999600 ) ;
#35 = ORIENTED_EDGE ( 'NONE', *, *, #233, .F. ) ;
#36 = CALENDAR_DATE ( 2019, 16, 1 ) ;
#37 = DIRECTION ( 'NONE',  ( 0.0000000000000000000, 0.0000000000000000000, 1.000000000000000000 ) ) ;
#38 = CARTESIAN_POINT ( 'NONE',  ( 2.152220786133598500, 2.162485026013593700, 0.1837132306652386500 ) ) ;
#39 = COORDINATED_UNIVERSAL_TIME_OFFSET ( 2, 0, .AHEAD. ) ;
#40 = CARTESIAN_POINT ( 'NONE',  ( -9.540979117872439000E-015, -6.425473222214765900, -0.5458740430596662500 ) ) ;
#41 = CARTESIAN_POINT ( 'NONE',  ( 2.152220786133599800, -2.162485026013581700, 0.1837132306652390900 ) ) ;
#42 = DATE_AND_TIME ( #183, #2 ) ;
#43 = DIRECTION ( 'NONE',  ( 1.000000000000000000, 0.0000000000000000000, 0.0000000000000000000 ) ) ;
#44 = CC_DESIGN_DATE_AND_TIME_ASSIGNMENT ( #159, #114, ( #56 ) ) ;
#45 = APPROVAL_ROLE ( '' ) ;
#46 = ORIENTED_EDGE ( 'NONE', *, *, #175, .T. ) ;
#47 = DIRECTION ( 'NONE',  ( 1.000000000000000000, 0.0000000000000000000, 0.0000000000000000000 ) ) ;
#48 = PERSON_AND_ORGANIZATION ( #216, #117 ) ;
#49 = DIRECTION ( 'NONE',  ( -0.0000000000000000000, -0.0000000000000000000, -1.000000000000000000 ) ) ;
#50 = ADVANCED_FACE ( 'NONE', ( #132 ), #234, .F. ) ;
#51 = APPROVAL_PERSON_ORGANIZATION ( #73, #176, #45 ) ;
#52 = ADVANCED_FACE ( 'NONE', ( #122 ), #163, .T. ) ;
#53 = CIRCLE ( 'NONE', #173, 6.349999999999999600 ) ;
#54 = EDGE_CURVE ( 'NONE', #109, #171, #188, .T. ) ;
#55 = COORDINATED_UNIVERSAL_TIME_OFFSET ( 2, 0, .AHEAD. ) ;
#56 = PRODUCT_DEFINITION ( 'UNKNOWN', '', #70, #130 ) ;
#57 = CLOSED_SHELL ( 'NONE', ( #19, #33, #50, #155, #52 ) ) ;
#58 = CARTESIAN_POINT ( 'NONE',  ( 4.296808024926355600, 2.162485026013595000, 0.002605838566536284100 ) ) ;
#59 = ADVANCED_BREP_SHAPE_REPRESENTATION ( '112-1112E UVFS pl-cv 12.7 F-80', ( #139, #148 ), #196 ) ;
#60 = DIRECTION ( 'NONE',  ( 0.0000000000000000000, 0.0000000000000000000, 1.000000000000000000 ) ) ;
#61 = COORDINATED_UNIVERSAL_TIME_OFFSET ( 2, 0, .AHEAD. ) ;
#62 = APPROVAL ( #82, 'UNSPECIFIED' ) ;
#63 = DIRECTION ( 'NONE',  ( 0.0000000000000000000, 0.0000000000000000000, 1.000000000000000000 ) ) ;
#64 = CARTESIAN_POINT ( 'NONE',  ( 6.349999999999999600, 1.221245327087670000E-015, -0.5330352664116370100 ) ) ;
#65 = CARTESIAN_POINT ( 'NONE',  ( 2.498001805406600200E-016, 1.221245327087670000E-015, 2.600000000000000500 ) ) ;
#66 = ORIENTED_EDGE ( 'NONE', *, *, #127, .T. ) ;
#67 = DIRECTION ( 'NONE',  ( -3.814462587008669800E-016, 1.000000000000000000, 0.0000000000000000000 ) ) ;
#68 = APPLICATION_CONTEXT ( 'configuration controlled 3d designs of mechanical parts and assemblies' ) ;
#69 = VERTEX_POINT ( 'NONE', #77 ) ;
#70 = PRODUCT_DEFINITION_FORMATION_WITH_SPECIFIED_SOURCE ( 'ANY', '', #128, .NOT_KNOWN. ) ;
#71 = CIRCLE ( 'NONE', #119, 6.349999999999999600 ) ;
#72 = VERTEX_POINT ( 'NONE', #224 ) ;
#73 = PERSON_AND_ORGANIZATION ( #216, #117 ) ;
#74 = VERTEX_POINT ( 'NONE', #80 ) ;
#75 = CARTESIAN_POINT ( 'NONE',  ( -2.152220786133618900, -2.162485026013583100, 0.1837132306652325700 ) ) ;
#76 = DATE_AND_TIME ( #108, #25 ) ;
#77 = CARTESIAN_POINT ( 'NONE',  ( -6.349999999999999600, 1.998896044546239400E-015, 2.600000000000000500 ) ) ;
#78 = EDGE_CURVE ( 'NONE', #200, #72, #113, .T. ) ;
#79 = DIRECTION ( 'NONE',  ( 0.0000000000000000000, 0.0000000000000000000, 1.000000000000000000 ) ) ;
#80 = CARTESIAN_POINT ( 'NONE',  ( 6.997765601361288300E-016, -6.350000000000001400, -0.5330352664116369000 ) ) ;
#81 = PERSON_AND_ORGANIZATION ( #216, #117 ) ;
#82 = APPROVAL_STATUS ( 'not_yet_approved' ) ;
#83 = EDGE_LOOP ( 'NONE', ( #118, #86, #6 ) ) ;
#84 = LOCAL_TIME ( 14, 34, 52.00000000000000000, #39 ) ;
#85 = VECTOR ( 'NONE', #24, 1000.000000000000000 ) ;
#86 = ORIENTED_EDGE ( 'NONE', *, *, #127, .F. ) ;
#87 = CARTESIAN_POINT ( 'NONE',  ( 2.498001805406600200E-016, 1.221245327087670000E-015, -0.5330352664116370100 ) ) ;
#88 = DIRECTION ( 'NONE',  ( 0.0000000000000000000, 0.0000000000000000000, 1.000000000000000000 ) ) ;
#89 = AXIS2_PLACEMENT_3D ( 'NONE', #207, #225, #111 ) ;
#90 = CARTESIAN_POINT ( 'NONE',  ( 2.111194380194202100, 6.425473222214777500, -0.5458740430596610300 ) ) ;
#91 = DIRECTION ( 'NONE',  ( 1.000000000000000000, 0.0000000000000000000, -0.0000000000000000000 ) ) ;
#92 = CARTESIAN_POINT ( 'NONE',  ( 2.111194380194206100, -6.425473222214765000, -0.5458740430596610300 ) ) ;
#93 = CARTESIAN_POINT ( 'NONE',  ( -4.169147636853057900E-015, 6.425473222214776600, -0.5458740430596618100 ) ) ;
#94 = ORIENTED_EDGE ( 'NONE', *, *, #219, .T. ) ;
#95 = CARTESIAN_POINT ( 'NONE',  ( 6.418548771387338400, 2.162485026013594600, -0.3583242337088677300 ) ) ;
#96 = SECURITY_CLASSIFICATION_LEVEL ( 'unclassified' ) ;
#97 = DIRECTION ( 'NONE',  ( 0.0000000000000000000, 0.0000000000000000000, 1.000000000000000000 ) ) ;
#98 = DIRECTION ( 'NONE',  ( 1.000000000000000000, 0.0000000000000000000, 0.0000000000000000000 ) ) ;
#99 = DATE_AND_TIME ( #36, #11 ) ;
#100 = UNCERTAINTY_MEASURE_WITH_UNIT (LENGTH_MEASURE( 1.000000000000000100E-005 ), #31, 'distance_accuracy_value', 'NONE');
#101 = AXIS2_PLACEMENT_3D ( 'NONE', #87, #37, #161 ) ;
#102 = CIRCLE ( 'NONE', #101, 6.349999999999999600 ) ;
#103 = PERSON_AND_ORGANIZATION ( #216, #117 ) ;
#104 = CYLINDRICAL_SURFACE ( 'NONE', #203, 6.349999999999999600 ) ;
#105 = ORIENTED_EDGE ( 'NONE', *, *, #233, .T. ) ;
#106 = CARTESIAN_POINT ( 'NONE',  ( -2.111194380194221200, -6.425473222214766800, -0.5458740430596674700 ) ) ;
#107 = CARTESIAN_POINT ( 'NONE',  ( -1.474514954580286000E-014, 6.425473222214776600, -0.5458740430596662500 ) ) ;
#108 = CALENDAR_DATE ( 2019, 16, 1 ) ;
#109 = VERTEX_POINT ( 'NONE', #64 ) ;
#110 = AXIS2_PLACEMENT_3D ( 'NONE', #181, #63, #43 ) ;
#111 = DIRECTION ( 'NONE',  ( 1.000000000000000000, 0.0000000000000000000, 0.0000000000000000000 ) ) ;
#112 = CARTESIAN_POINT ( 'NONE',  ( -6.349999999999999600, 1.998896044546239400E-015, -0.5330352664116370100 ) ) ;
#113 = CIRCLE ( 'NONE', #89, 6.349999999999999600 ) ;
#114 = DATE_TIME_ROLE ( 'creation_date' ) ;
#115 = ORIENTED_EDGE ( 'NONE', *, *, #9, .T. ) ;
#116 = APPLICATION_CONTEXT ( 'configuration controlled 3d designs of mechanical parts and assemblies' ) ;
#117 = ORGANIZATION ( 'UNSPECIFIED', 'UNSPECIFIED', '' ) ;
#118 = ORIENTED_EDGE ( 'NONE', *, *, #219, .F. ) ;
#119 = AXIS2_PLACEMENT_3D ( 'NONE', #14, #170, #47 ) ;
#120 = CARTESIAN_POINT ( 'NONE',  ( -2.111194380194226100, 6.425473222214775700, -0.5458740430596674700 ) ) ;
#121 = CARTESIAN_POINT ( 'NONE',  ( 4.296808024926357400, -2.162485026013580800, 0.002605838566536718200 ) ) ;
#122 = FACE_OUTER_BOUND ( 'NONE', #29, .T. ) ;
#123 = CARTESIAN_POINT ( 'NONE',  ( 6.349999999999999600, 1.221245327087670000E-015, -0.5330352664116370100 ) ) ;
#124 = PERSON_AND_ORGANIZATION ( #216, #117 ) ;
#125 = DIRECTION ( 'NONE',  ( 1.000000000000000000, 0.0000000000000000000, 0.0000000000000000000 ) ) ;
#126 = APPROVAL_DATE_TIME ( #99, #62 ) ;
#127 = EDGE_CURVE ( 'NONE', #109, #200, #53, .T. ) ;
#128 = PRODUCT ( '112-1112E UVFS pl-cv 12.7 F-80', '112-1112E UVFS pl-cv 12.7 F-80', '', ( #30 ) ) ;
#129 = APPLICATION_PROTOCOL_DEFINITION ( 'international standard', 'config_control_design', 1994, #68 ) ;
#130 = DESIGN_CONTEXT ( 'detailed design', #116, 'design' ) ;
#131 = DATE_TIME_ROLE ( 'classification_date' ) ;
#132 = FACE_OUTER_BOUND ( 'NONE', #83, .T. ) ;
#133 = PRODUCT_RELATED_PRODUCT_CATEGORY ( 'detail', '', ( #128 ) ) ;
#134 = CC_DESIGN_PERSON_AND_ORGANIZATION_ASSIGNMENT ( #81, #154, ( #128 ) ) ;
#135 = FACE_OUTER_BOUND ( 'NONE', #152, .T. ) ;
#136 = CC_DESIGN_PERSON_AND_ORGANIZATION_ASSIGNMENT ( #103, #187, ( #56 ) ) ;
#137 = CIRCLE ( 'NONE', #226, 38.09000000000000300 ) ;
#138 = ORIENTED_EDGE ( 'NONE', *, *, #54, .F. ) ;
#139 = MANIFOLD_SOLID_BREP ( 'Imported1', #57 ) ;
#140 = ORIENTED_EDGE ( 'NONE', *, *, #54, .T. ) ;
#141 = CARTESIAN_POINT ( 'NONE',  ( 2.498001805406600200E-016, 1.221245327087670000E-015, -0.5330352664116370100 ) ) ;
#142 = APPROVAL_PERSON_ORGANIZATION ( #124, #62, #212 ) ;
#143 = CARTESIAN_POINT ( 'NONE',  ( 7.327978051398015300E-016, -6.425473222214765900, -0.5458740430596618100 ) ) ;
#144 = CARTESIAN_POINT ( 'NONE',  ( -6.418548771387369500, 2.162485026013589700, -0.3583242337088797800 ) ) ;
#145 = SECURITY_CLASSIFICATION ( '', '', #96 ) ;
#146 = CARTESIAN_POINT ( 'NONE',  ( -4.296808024926383100, 2.162485026013591000, 0.002605838566528261000 ) ) ;
#147 = ORIENTED_EDGE ( 'NONE', *, *, #9, .F. ) ;
#148 = AXIS2_PLACEMENT_3D ( 'NONE', #172, #189, #151 ) ;
#149 = CARTESIAN_POINT ( 'NONE',  ( -4.296808024926381400, -2.162485026013583900, 0.002605838566528694700 ) ) ;
#150 = DIRECTION ( 'NONE',  ( 1.000000000000000000, 0.0000000000000000000, 0.0000000000000000000 ) ) ;
#151 = DIRECTION ( 'NONE',  ( 1.000000000000000000, 0.0000000000000000000, 0.0000000000000000000 ) ) ;
#152 = EDGE_LOOP ( 'NONE', ( #21, #115, #195, #140, #217 ) ) ;
#153 =( NAMED_UNIT ( * ) SI_UNIT ( $, .STERADIAN. ) SOLID_ANGLE_UNIT ( ) );
#154 = PERSON_AND_ORGANIZATION_ROLE ( 'design_owner' ) ;
#155 = ADVANCED_FACE ( 'NONE', ( #135 ), #34, .T. ) ;
#156 = DIRECTION ( 'NONE',  ( 1.000000000000000000, 3.814462587008669800E-016, 3.296471987775830200E-016 ) ) ;
#157 = COORDINATED_UNIVERSAL_TIME_OFFSET ( 2, 0, .AHEAD. ) ;
#158 = EDGE_LOOP ( 'NONE', ( #214, #94, #147 ) ) ;
#159 = DATE_AND_TIME ( #10, #206 ) ;
#160 = CC_DESIGN_APPROVAL ( #62, ( #145 ) ) ;
#161 = DIRECTION ( 'NONE',  ( 1.000000000000000000, 0.0000000000000000000, 0.0000000000000000000 ) ) ;
#162 = AXIS2_PLACEMENT_3D ( 'NONE', #28, #79, #91 ) ;
#163 = PLANE ( 'NONE',  #162 ) ;
#164 = APPROVAL_DATE_TIME ( #76, #235 ) ;
#165 = CARTESIAN_POINT ( 'NONE',  ( 4.214900726469783100, 6.425473222214778300, -0.7235291009765089100 ) ) ;
#166 = CARTESIAN_POINT ( 'NONE',  ( -1.301042606982605300E-014, 2.162485026013592400, 0.1837132306652333700 ) ) ;
#167 =( NAMED_UNIT ( * ) PLANE_ANGLE_UNIT ( ) SI_UNIT ( $, .RADIAN. ) );
#168 = EDGE_CURVE ( 'NONE', #171, #69, #71, .T. ) ;
#169 = APPROVAL_STATUS ( 'not_yet_approved' ) ;
#170 = DIRECTION ( 'NONE',  ( -0.0000000000000000000, -0.0000000000000000000, -1.000000000000000000 ) ) ;
#171 = VERTEX_POINT ( 'NONE', #227 ) ;
#172 = CARTESIAN_POINT ( 'NONE',  ( 0.0000000000000000000, 0.0000000000000000000, 0.0000000000000000000 ) ) ;
#173 = AXIS2_PLACEMENT_3D ( 'NONE', #7, #97, #150 ) ;
#174 = VECTOR ( 'NONE', #228, 1000.000000000000000 ) ;
#175 = EDGE_CURVE ( 'NONE', #72, #69, #13, .T. ) ;
#176 = APPROVAL ( #169, 'UNSPECIFIED' ) ;
#177 = CARTESIAN_POINT ( 'NONE',  ( -6.296196088459423900, 6.425473222214773900, -1.077578994528483000 ) ) ;
#178 =( BOUNDED_SURFACE ( )  B_SPLINE_SURFACE ( 3, 3, ( 
 ( #177, #1, #120, #107 ),
 ( #144, #146, #23, #166 ),
 ( #221, #149, #75, #220 ),
 ( #179, #8, #106, #40 ) ),
 .UNSPECIFIED., .F., .F., .T. ) 
 B_SPLINE_SURFACE_WITH_KNOTS ( ( 4, 4 ),
 ( 4, 4 ),
 ( 0.0000000000000000000, 1.000000000000000000 ),
 ( 0.0000000000000000000, 1.000000000000000000 ),
 .UNSPECIFIED. ) 
 GEOMETRIC_REPRESENTATION_ITEM ( )  RATIONAL_B_SPLINE_SURFACE ( (
 ( 1.000000000000000000, 0.9976354509754061800, 0.9976354509754061800, 1.000000000000000000),
 ( 0.9904458905564073000, 0.9881039326919791600, 0.9881039326919791600, 0.9904458905564073000),
 ( 0.9904458905564073000, 0.9881039326919791600, 0.9881039326919791600, 0.9904458905564073000),
 ( 1.000000000000000000, 0.9976354509754061800, 0.9976354509754061800, 1.000000000000000000) ) ) 
 REPRESENTATION_ITEM ( '' )  SURFACE ( )  );
#179 = CARTESIAN_POINT ( 'NONE',  ( -6.296196088459419500, -6.425473222214768600, -1.077578994528483000 ) ) ;
#180 = CC_DESIGN_APPROVAL ( #176, ( #56 ) ) ;
#181 = CARTESIAN_POINT ( 'NONE',  ( 2.498001805406600200E-016, 1.221245327087670000E-015, -0.5330352664116370100 ) ) ;
#182 = CARTESIAN_POINT ( 'NONE',  ( -1.133809494234284500E-015, -2.162485026013581700, 0.1837132306652384000 ) ) ;
#183 = CALENDAR_DATE ( 2019, 16, 1 ) ;
#184 = DATE_AND_TIME ( #232, #84 ) ;
#185 = CARTESIAN_POINT ( 'NONE',  ( -2.783553139573345600E-015, 2.162485026013592400, 0.1837132306652379500 ) ) ;
#186 = CC_DESIGN_PERSON_AND_ORGANIZATION_ASSIGNMENT ( #48, #192, ( #70 ) ) ;
#187 = PERSON_AND_ORGANIZATION_ROLE ( 'creator' ) ;
#188 = LINE ( 'NONE', #123, #85 ) ;
#189 = DIRECTION ( 'NONE',  ( 0.0000000000000000000, 0.0000000000000000000, 1.000000000000000000 ) ) ;
#190 = ORIENTED_EDGE ( 'NONE', *, *, #78, .T. ) ;
#191 = AXIS2_PLACEMENT_3D ( 'NONE', #141, #88, #5 ) ;
#192 = PERSON_AND_ORGANIZATION_ROLE ( 'design_supplier' ) ;
#193 = APPLICATION_PROTOCOL_DEFINITION ( 'international standard', 'config_control_design', 1994, #116 ) ;
#194 = PERSON_AND_ORGANIZATION ( #216, #117 ) ;
#195 = ORIENTED_EDGE ( 'NONE', *, *, #3, .T. ) ;
#196 =( GEOMETRIC_REPRESENTATION_CONTEXT ( 3 ) GLOBAL_UNCERTAINTY_ASSIGNED_CONTEXT ( ( #100 ) ) GLOBAL_UNIT_ASSIGNED_CONTEXT ( ( #31, #167, #153 ) ) REPRESENTATION_CONTEXT ( 'NONE', 'WORKASPACE' ) );
#197 = PERSON_AND_ORGANIZATION ( #216, #117 ) ;
#198 = CC_DESIGN_APPROVAL ( #235, ( #70 ) ) ;
#199 = COORDINATED_UNIVERSAL_TIME_OFFSET ( 2, 0, .AHEAD. ) ;
#200 = VERTEX_POINT ( 'NONE', #230 ) ;
#201 = CIRCLE ( 'NONE', #20, 6.349999999999999600 ) ;
#202 = FACE_OUTER_BOUND ( 'NONE', #158, .T. ) ;
#203 = AXIS2_PLACEMENT_3D ( 'NONE', #204, #60, #125 ) ;
#204 = CARTESIAN_POINT ( 'NONE',  ( 2.498001805406600200E-016, 1.221245327087670000E-015, -0.5330352664116370100 ) ) ;
#205 = CARTESIAN_POINT ( 'NONE',  ( 6.296196088459388400, 6.425473222214779200, -1.077578994528471100 ) ) ;
#206 = LOCAL_TIME ( 14, 34, 52.00000000000000000, #61 ) ;
#207 = CARTESIAN_POINT ( 'NONE',  ( 2.498001805406600200E-016, 1.221245327087670000E-015, -0.5330352664116370100 ) ) ;
#208 = PERSON_AND_ORGANIZATION_ROLE ( 'classification_officer' ) ;
#209 = EDGE_LOOP ( 'NONE', ( #66, #190, #46, #105, #138 ) ) ;
#210 = CARTESIAN_POINT ( 'NONE',  ( 1.065814103640150000E-014, 7.105427357601000300E-015, -38.09000000000000300 ) ) ;
#211 = PERSON_AND_ORGANIZATION_ROLE ( 'creator' ) ;
#212 = APPROVAL_ROLE ( '' ) ;
#213 = APPROVAL_PERSON_ORGANIZATION ( #194, #235, #32 ) ;
#214 = ORIENTED_EDGE ( 'NONE', *, *, #78, .F. ) ;
#215 = CC_DESIGN_PERSON_AND_ORGANIZATION_ASSIGNMENT ( #197, #211, ( #70 ) ) ;
#216 = PERSON ( 'UNSPECIFIED', 'UNSPECIFIED', 'UNSPECIFIED', ('UNSPECIFIED'), ('UNSPECIFIED'), ('UNSPECIFIED') ) ;
#217 = ORIENTED_EDGE ( 'NONE', *, *, #168, .T. ) ;
#218 = PERSON_AND_ORGANIZATION ( #216, #117 ) ;
#219 = EDGE_CURVE ( 'NONE', #200, #74, #137, .T. ) ;
#220 = CARTESIAN_POINT ( 'NONE',  ( -1.127570259384924600E-014, -2.162485026013581700, 0.1837132306652338200 ) ) ;
#221 = CARTESIAN_POINT ( 'NONE',  ( -6.418548771387367700, -2.162485026013584400, -0.3583242337088793400 ) ) ;
#222 = ORIENTED_EDGE ( 'NONE', *, *, #168, .F. ) ;
#223 = SHAPE_DEFINITION_REPRESENTATION ( #229, #59 ) ;
#224 = CARTESIAN_POINT ( 'NONE',  ( -6.349999999999999600, 1.998896044546239400E-015, -0.5330352664116370100 ) ) ;
#225 = DIRECTION ( 'NONE',  ( 0.0000000000000000000, 0.0000000000000000000, 1.000000000000000000 ) ) ;
#226 = AXIS2_PLACEMENT_3D ( 'NONE', #210, #156, #67 ) ;
#227 = CARTESIAN_POINT ( 'NONE',  ( 6.349999999999999600, 1.221245327087670000E-015, 2.600000000000000500 ) ) ;
#228 = DIRECTION ( 'NONE',  ( 0.0000000000000000000, 0.0000000000000000000, 1.000000000000000000 ) ) ;
#229 = PRODUCT_DEFINITION_SHAPE ( 'NONE', 'NONE',  #56 ) ;
#230 = CARTESIAN_POINT ( 'NONE',  ( -4.144590925364886400E-015, 6.350000000000008500, -0.5330352664116369000 ) ) ;
#231 = FACE_OUTER_BOUND ( 'NONE', #209, .T. ) ;
#232 = CALENDAR_DATE ( 2019, 16, 1 ) ;
#233 = EDGE_CURVE ( 'NONE', #69, #171, #201, .T. ) ;
#234 =( BOUNDED_SURFACE ( )  B_SPLINE_SURFACE ( 3, 3, ( 
 ( #93, #90, #165, #205 ),
 ( #185, #38, #58, #95 ),
 ( #182, #41, #121, #27 ),
 ( #143, #92, #12, #26 ) ),
 .UNSPECIFIED., .F., .F., .F. ) 
 B_SPLINE_SURFACE_WITH_KNOTS ( ( 4, 4 ),
 ( 4, 4 ),
 ( 0.0000000000000000000, 1.000000000000000000 ),
 ( 0.0000000000000000000, 1.000000000000000000 ),
 .UNSPECIFIED. ) 
 GEOMETRIC_REPRESENTATION_ITEM ( )  RATIONAL_B_SPLINE_SURFACE ( (
 ( 1.000000000000000000, 0.9976354509754061800, 0.9976354509754061800, 1.000000000000000000),
 ( 0.9904458905564073000, 0.9881039326919791600, 0.9881039326919791600, 0.9904458905564073000),
 ( 0.9904458905564073000, 0.9881039326919791600, 0.9881039326919791600, 0.9904458905564073000),
 ( 1.000000000000000000, 0.9976354509754061800, 0.9976354509754061800, 1.000000000000000000) ) ) 
 REPRESENTATION_ITEM ( '' )  SURFACE ( )  );
#235 = APPROVAL ( #16, 'UNSPECIFIED' ) ;
ENDSEC;
END-ISO-10303-21;
