ISO-10303-21;
HEADER;
FILE_DESCRIPTION (( 'STEP AP203' ),
    '1' );
FILE_NAME ('112-1111E UVFS pl-cv 12.7 F-75.STEP',
    '2019-01-16T12:26:50',
    ( '' ),
    ( '' ),
    'SwSTEP 2.0',
    'SolidWorks 2017',
    '' );
FILE_SCHEMA (( 'CONFIG_CONTROL_DESIGN' ));
ENDSEC;

DATA;
#1 = CARTESIAN_POINT ( 'NONE',  ( 4.208790742389833600, 6.425371825435546700, -0.7721808926231065200 ) ) ;
#2 = CARTESIAN_POINT ( 'NONE',  ( 2.155431799127066800, 2.165350998062656200, 0.1964107762727115000 ) ) ;
#3 = DATE_AND_TIME ( #30, #178 ) ;
#4 = FACE_OUTER_BOUND ( 'NONE', #221, .T. ) ;
#5 = AXIS2_PLACEMENT_3D ( 'NONE', #226, #9, #232 ) ;
#6 = CARTESIAN_POINT ( 'NONE',  ( 1.799735547288512300E-014, -6.425371825435551200, -0.5828211080807221800 ) ) ;
#7 = CC_DESIGN_APPROVAL ( #192, ( #173 ) ) ;
#8 = PERSON_AND_ORGANIZATION ( #116, #61 ) ;
#9 = DIRECTION ( 'NONE',  ( 0.0000000000000000000, 0.0000000000000000000, 1.000000000000000000 ) ) ;
#10 = VERTEX_POINT ( 'NONE', #117 ) ;
#11 = LOCAL_TIME ( 14, 26, 50.00000000000000000, #84 ) ;
#12 = AXIS2_PLACEMENT_3D ( 'NONE', #188, #89, #23 ) ;
#13 = CLOSED_SHELL ( 'NONE', ( #50, #106, #160, #35, #57 ) ) ;
#14 = AXIS2_PLACEMENT_3D ( 'NONE', #19, #159, #58 ) ;
#15 = ORIENTED_EDGE ( 'NONE', *, *, #96, .T. ) ;
#16 = COORDINATED_UNIVERSAL_TIME_OFFSET ( 2, 0, .AHEAD. ) ;
#17 = CARTESIAN_POINT ( 'NONE',  ( -2.108655161024894900, -6.425371825435551200, -0.5828211080807171900 ) ) ;
#18 = APPROVAL ( #44, 'UNSPECIFIED' ) ;
#19 = CARTESIAN_POINT ( 'NONE',  ( 2.498001805406600200E-016, 1.221245327087670000E-015, -0.5691178255297700800 ) ) ;
#20 = CARTESIAN_POINT ( 'NONE',  ( 2.155431799127066800, -2.165350998062660200, 0.1964107762727094500 ) ) ;
#21 = VECTOR ( 'NONE', #85, 1000.000000000000000 ) ;
#22 = PERSON_AND_ORGANIZATION ( #116, #61 ) ;
#23 = DIRECTION ( 'NONE',  ( 1.000000000000000000, 0.0000000000000000000, 0.0000000000000000000 ) ) ;
#24 = CARTESIAN_POINT ( 'NONE',  ( 4.302155027382161400, -2.165350998062660200, 0.002850393037680568800 ) ) ;
#25 = EDGE_CURVE ( 'NONE', #177, #95, #212, .T. ) ;
#26 = CYLINDRICAL_SURFACE ( 'NONE', #5, 6.349999999999999600 ) ;
#27 = ORIENTED_EDGE ( 'NONE', *, *, #108, .F. ) ;
#28 = AXIS2_PLACEMENT_3D ( 'NONE', #120, #139, #109 ) ;
#29 = CARTESIAN_POINT ( 'NONE',  ( 1.127570259384924600E-014, 6.425371825435547600, -0.5828211080807175200 ) ) ;
#30 = CALENDAR_DATE ( 2019, 16, 1 ) ;
#31 = CARTESIAN_POINT ( 'NONE',  ( 1.800299039758148800E-014, -6.350000000000019200, -0.5691178255297703000 ) ) ;
#32 = EDGE_CURVE ( 'NONE', #189, #95, #154, .T. ) ;
#33 = DIRECTION ( 'NONE',  ( 0.0000000000000000000, 1.000000000000000000, -3.886246935820346400E-016 ) ) ;
#34 = CALENDAR_DATE ( 2019, 16, 1 ) ;
#35 = ADVANCED_FACE ( 'NONE', ( #195 ), #26, .T. ) ;
#36 = CARTESIAN_POINT ( 'NONE',  ( 3.552713678800500100E-015, -1.065814103640150000E-014, -35.71000000000000100 ) ) ;
#37 = CARTESIAN_POINT ( 'NONE',  ( 2.498001805406600200E-016, 1.221245327087670000E-015, -0.5691178255297700800 ) ) ;
#38 = DESIGN_CONTEXT ( 'detailed design', #147, 'design' ) ;
#39 = EDGE_LOOP ( 'NONE', ( #163, #112 ) ) ;
#40 = CALENDAR_DATE ( 2019, 16, 1 ) ;
#41 =( NAMED_UNIT ( * ) SI_UNIT ( $, .STERADIAN. ) SOLID_ANGLE_UNIT ( ) );
#42 = MECHANICAL_CONTEXT ( 'NONE', #222, 'mechanical' ) ;
#43 = EDGE_CURVE ( 'NONE', #152, #10, #209, .T. ) ;
#44 = APPROVAL_STATUS ( 'not_yet_approved' ) ;
#45 = PERSON_AND_ORGANIZATION ( #116, #61 ) ;
#46 = DIRECTION ( 'NONE',  ( 1.000000000000000000, 0.0000000000000000000, 0.0000000000000000000 ) ) ;
#47 = DATE_AND_TIME ( #181, #191 ) ;
#48 = CARTESIAN_POINT ( 'NONE',  ( -2.108655161024893100, 6.425371825435546700, -0.5828211080807170800 ) ) ;
#49 = DIRECTION ( 'NONE',  ( -0.0000000000000000000, -0.0000000000000000000, -1.000000000000000000 ) ) ;
#50 = ADVANCED_FACE ( 'NONE', ( #4 ), #234, .F. ) ;
#51 = EDGE_CURVE ( 'NONE', #166, #152, #149, .T. ) ;
#52 = CARTESIAN_POINT ( 'NONE',  ( -6.349999999999999600, 1.998896044546239400E-015, 2.500000000000000000 ) ) ;
#53 = FACE_OUTER_BOUND ( 'NONE', #184, .T. ) ;
#54 = PERSON_AND_ORGANIZATION ( #116, #61 ) ;
#55 = DIRECTION ( 'NONE',  ( 1.000000000000000000, 0.0000000000000000000, -0.0000000000000000000 ) ) ;
#56 = PRODUCT_RELATED_PRODUCT_CATEGORY ( 'detail', '', ( #171 ) ) ;
#57 = ADVANCED_FACE ( 'NONE', ( #68 ), #197, .T. ) ;
#58 = DIRECTION ( 'NONE',  ( 1.000000000000000000, 0.0000000000000000000, 0.0000000000000000000 ) ) ;
#59 = CARTESIAN_POINT ( 'NONE',  ( 4.208790742389833600, -6.425371825435551200, -0.7721808926231064100 ) ) ;
#60 = CARTESIAN_POINT ( 'NONE',  ( 6.422822913335745700, 2.165350998062654900, -0.3827062930322575600 ) ) ;
#61 = ORGANIZATION ( 'UNSPECIFIED', 'UNSPECIFIED', '' ) ;
#62 = EDGE_CURVE ( 'NONE', #177, #152, #135, .T. ) ;
#63 = APPLICATION_PROTOCOL_DEFINITION ( 'international standard', 'config_control_design', 1994, #147 ) ;
#64 = ORIENTED_EDGE ( 'NONE', *, *, #62, .T. ) ;
#65 = PERSON_AND_ORGANIZATION_ROLE ( 'creator' ) ;
#66 = CIRCLE ( 'NONE', #187, 6.349999999999999600 ) ;
#67 = LOCAL_TIME ( 14, 26, 50.00000000000000000, #91 ) ;
#68 = FACE_OUTER_BOUND ( 'NONE', #39, .T. ) ;
#69 = CC_DESIGN_APPROVAL ( #18, ( #199 ) ) ;
#70 = CARTESIAN_POINT ( 'NONE',  ( -2.155431799127049500, 2.165350998062655300, 0.1964107762727176400 ) ) ;
#71 = CARTESIAN_POINT ( 'NONE',  ( -6.422822913335751100, 2.165350998062654400, -0.3827062930322565100 ) ) ;
#72 = ORIENTED_EDGE ( 'NONE', *, *, #25, .F. ) ;
#73 = APPROVAL_DATE_TIME ( #113, #18 ) ;
#74 = CARTESIAN_POINT ( 'NONE',  ( -4.302155027382156900, -2.165350998062660600, 0.002850393037684472000 ) ) ;
#75 = CARTESIAN_POINT ( 'NONE',  ( 2.498001805406600200E-016, 1.221245327087670000E-015, -0.5691178255297700800 ) ) ;
#76 = FACE_OUTER_BOUND ( 'NONE', #207, .T. ) ;
#77 = CARTESIAN_POINT ( 'NONE',  ( 6.283436427930350700, -6.425371825435551200, -1.149370324586716200 ) ) ;
#78 = ORIENTED_EDGE ( 'NONE', *, *, #51, .T. ) ;
#79 =( LENGTH_UNIT ( ) NAMED_UNIT ( * ) SI_UNIT ( .MILLI., .METRE. ) );
#80 = ORIENTED_EDGE ( 'NONE', *, *, #43, .F. ) ;
#81 = PERSON_AND_ORGANIZATION_ROLE ( 'classification_officer' ) ;
#82 = ORIENTED_EDGE ( 'NONE', *, *, #25, .T. ) ;
#83 = CC_DESIGN_SECURITY_CLASSIFICATION ( #193, ( #173 ) ) ;
#84 = COORDINATED_UNIVERSAL_TIME_OFFSET ( 2, 0, .AHEAD. ) ;
#85 = DIRECTION ( 'NONE',  ( 0.0000000000000000000, 0.0000000000000000000, 1.000000000000000000 ) ) ;
#86 = EDGE_CURVE ( 'NONE', #95, #189, #101, .T. ) ;
#87 = PERSON_AND_ORGANIZATION ( #116, #61 ) ;
#88 = CC_DESIGN_PERSON_AND_ORGANIZATION_ASSIGNMENT ( #196, #190, ( #173 ) ) ;
#89 = DIRECTION ( 'NONE',  ( 0.0000000000000000000, 0.0000000000000000000, 1.000000000000000000 ) ) ;
#90 = ORIENTED_EDGE ( 'NONE', *, *, #86, .T. ) ;
#91 = COORDINATED_UNIVERSAL_TIME_OFFSET ( 2, 0, .AHEAD. ) ;
#92 = AXIS2_PLACEMENT_3D ( 'NONE', #75, #110, #107 ) ;
#93 = CARTESIAN_POINT ( 'NONE',  ( -6.349999999999999600, 1.998896044546239400E-015, -0.5691178255297700800 ) ) ;
#94 = CARTESIAN_POINT ( 'NONE',  ( 1.800299039758148800E-014, 6.350000000000010300, -0.5691178255297703000 ) ) ;
#95 = VERTEX_POINT ( 'NONE', #52 ) ;
#96 = EDGE_CURVE ( 'NONE', #10, #166, #66, .T. ) ;
#97 = CYLINDRICAL_SURFACE ( 'NONE', #162, 6.349999999999999600 ) ;
#98 = CARTESIAN_POINT ( 'NONE',  ( -4.208790742389828300, 6.425371825435545900, -0.7721808926231026300 ) ) ;
#99 = APPROVAL_PERSON_ORGANIZATION ( #22, #192, #130 ) ;
#100 = CC_DESIGN_PERSON_AND_ORGANIZATION_ASSIGNMENT ( #223, #65, ( #173 ) ) ;
#101 = CIRCLE ( 'NONE', #28, 6.349999999999999600 ) ;
#102 = PERSON_AND_ORGANIZATION ( #116, #61 ) ;
#103 =( GEOMETRIC_REPRESENTATION_CONTEXT ( 3 ) GLOBAL_UNCERTAINTY_ASSIGNED_CONTEXT ( ( #186 ) ) GLOBAL_UNIT_ASSIGNED_CONTEXT ( ( #79, #143, #41 ) ) REPRESENTATION_CONTEXT ( 'NONE', 'WORKASPACE' ) );
#104 = DIRECTION ( 'NONE',  ( 0.0000000000000000000, 0.0000000000000000000, 1.000000000000000000 ) ) ;
#105 = DATE_AND_TIME ( #231, #150 ) ;
#106 = ADVANCED_FACE ( 'NONE', ( #76 ), #97, .T. ) ;
#107 = DIRECTION ( 'NONE',  ( 1.000000000000000000, 0.0000000000000000000, 0.0000000000000000000 ) ) ;
#108 = EDGE_CURVE ( 'NONE', #10, #189, #230, .T. ) ;
#109 = DIRECTION ( 'NONE',  ( 1.000000000000000000, 0.0000000000000000000, 0.0000000000000000000 ) ) ;
#110 = DIRECTION ( 'NONE',  ( 0.0000000000000000000, 0.0000000000000000000, 1.000000000000000000 ) ) ;
#111 = APPLICATION_PROTOCOL_DEFINITION ( 'international standard', 'config_control_design', 1994, #222 ) ;
#112 = ORIENTED_EDGE ( 'NONE', *, *, #86, .F. ) ;
#113 = DATE_AND_TIME ( #34, #67 ) ;
#114 = SECURITY_CLASSIFICATION_LEVEL ( 'unclassified' ) ;
#115 = APPROVAL_ROLE ( '' ) ;
#116 = PERSON ( 'UNSPECIFIED', 'UNSPECIFIED', 'UNSPECIFIED', ('UNSPECIFIED'), ('UNSPECIFIED'), ('UNSPECIFIED') ) ;
#117 = CARTESIAN_POINT ( 'NONE',  ( 6.349999999999999600, 1.221245327087670000E-015, -0.5691178255297700800 ) ) ;
#118 = DIRECTION ( 'NONE',  ( 1.000000000000000000, 0.0000000000000000000, 0.0000000000000000000 ) ) ;
#119 = ORIENTED_EDGE ( 'NONE', *, *, #96, .F. ) ;
#120 = CARTESIAN_POINT ( 'NONE',  ( 2.498001805406600200E-016, 1.221245327087670000E-015, 2.500000000000000000 ) ) ;
#121 = MANIFOLD_SOLID_BREP ( 'Imported1', #13 ) ;
#122 = APPROVAL ( #208, 'UNSPECIFIED' ) ;
#123 = CARTESIAN_POINT ( 'NONE',  ( -6.283436427930356900, -6.425371825435552100, -1.149370324586715500 ) ) ;
#124 = DIRECTION ( 'NONE',  ( 1.000000000000000000, 0.0000000000000000000, 0.0000000000000000000 ) ) ;
#125 = CARTESIAN_POINT ( 'NONE',  ( 1.799735547288512300E-014, 6.425371825435547600, -0.5828211080807221800 ) ) ;
#126 = CC_DESIGN_PERSON_AND_ORGANIZATION_ASSIGNMENT ( #8, #167, ( #199 ) ) ;
#127 = ORIENTED_EDGE ( 'NONE', *, *, #155, .F. ) ;
#128 = CARTESIAN_POINT ( 'NONE',  ( 6.422822913335744800, -2.165350998062660600, -0.3827062930322595000 ) ) ;
#129 = CC_DESIGN_PERSON_AND_ORGANIZATION_ASSIGNMENT ( #45, #81, ( #193 ) ) ;
#130 = APPROVAL_ROLE ( '' ) ;
#131 = EDGE_LOOP ( 'NONE', ( #72, #64, #174, #224, #170 ) ) ;
#132 = CARTESIAN_POINT ( 'NONE',  ( 1.127570259384924600E-014, 2.165350998062654400, 0.1964107762727171600 ) ) ;
#133 = APPROVAL_PERSON_ORGANIZATION ( #54, #122, #115 ) ;
#134 = CARTESIAN_POINT ( 'NONE',  ( -6.349999999999999600, 1.998896044546239400E-015, -0.5691178255297700800 ) ) ;
#135 = CIRCLE ( 'NONE', #92, 6.349999999999999600 ) ;
#136 = DIRECTION ( 'NONE',  ( 0.0000000000000000000, 0.0000000000000000000, 1.000000000000000000 ) ) ;
#137 =( BOUNDED_SURFACE ( )  B_SPLINE_SURFACE ( 3, 3, ( 
 ( #125, #216, #1, #183 ),
 ( #142, #2, #185, #60 ),
 ( #220, #20, #24, #128 ),
 ( #6, #161, #59, #77 ) ),
 .UNSPECIFIED., .F., .F., .F. ) 
 B_SPLINE_SURFACE_WITH_KNOTS ( ( 4, 4 ),
 ( 4, 4 ),
 ( 0.0000000000000000000, 1.000000000000000000 ),
 ( 0.0000000000000000000, 1.000000000000000000 ),
 .UNSPECIFIED. ) 
 GEOMETRIC_REPRESENTATION_ITEM ( )  RATIONAL_B_SPLINE_SURFACE ( (
 ( 1.000000000000000000, 0.9973064729225079600, 0.9973064729225079600, 1.000000000000000000),
 ( 0.9891193669731965800, 0.9864551471753825200, 0.9864551471753825200, 0.9891193669731965800),
 ( 0.9891193669731965800, 0.9864551471753825200, 0.9864551471753825200, 0.9891193669731965800),
 ( 1.000000000000000000, 0.9973064729225079600, 0.9973064729225079600, 1.000000000000000000) ) ) 
 REPRESENTATION_ITEM ( '' )  SURFACE ( )  );
#138 = CARTESIAN_POINT ( 'NONE',  ( 2.498001805406600200E-016, 1.221245327087670000E-015, -0.5691178255297700800 ) ) ;
#139 = DIRECTION ( 'NONE',  ( -0.0000000000000000000, -0.0000000000000000000, -1.000000000000000000 ) ) ;
#140 = CARTESIAN_POINT ( 'NONE',  ( 6.349999999999999600, 1.221245327087670000E-015, -0.5691178255297700800 ) ) ;
#141 = DIRECTION ( 'NONE',  ( 0.0000000000000000000, 0.0000000000000000000, 1.000000000000000000 ) ) ;
#142 = CARTESIAN_POINT ( 'NONE',  ( 1.831778329541670200E-014, 2.165350998062654900, 0.1964107762727123900 ) ) ;
#143 =( NAMED_UNIT ( * ) PLANE_ANGLE_UNIT ( ) SI_UNIT ( $, .RADIAN. ) );
#144 = CARTESIAN_POINT ( 'NONE',  ( 6.349999999999999600, 1.221245327087670000E-015, 2.500000000000000000 ) ) ;
#145 = CIRCLE ( 'NONE', #14, 6.349999999999999600 ) ;
#146 = APPROVAL_ROLE ( '' ) ;
#147 = APPLICATION_CONTEXT ( 'configuration controlled 3d designs of mechanical parts and assemblies' ) ;
#148 = AXIS2_PLACEMENT_3D ( 'NONE', #172, #136, #118 ) ;
#149 = CIRCLE ( 'NONE', #235, 35.71000000000000100 ) ;
#150 = LOCAL_TIME ( 14, 26, 50.00000000000000000, #16 ) ;
#151 = AXIS2_PLACEMENT_3D ( 'NONE', #214, #49, #46 ) ;
#152 = VERTEX_POINT ( 'NONE', #31 ) ;
#153 = CARTESIAN_POINT ( 'NONE',  ( -6.283436427930356900, 6.425371825435546700, -1.149370324586715500 ) ) ;
#154 = CIRCLE ( 'NONE', #151, 6.349999999999999600 ) ;
#155 = EDGE_CURVE ( 'NONE', #166, #177, #145, .T. ) ;
#156 = DIRECTION ( 'NONE',  ( 0.0000000000000000000, 0.0000000000000000000, 1.000000000000000000 ) ) ;
#157 = DIRECTION ( 'NONE',  ( 1.000000000000000000, -1.673084924864089900E-031, -4.112098451893469900E-016 ) ) ;
#158 = APPROVAL_DATE_TIME ( #3, #122 ) ;
#159 = DIRECTION ( 'NONE',  ( 0.0000000000000000000, 0.0000000000000000000, 1.000000000000000000 ) ) ;
#160 = ADVANCED_FACE ( 'NONE', ( #53 ), #137, .F. ) ;
#161 = CARTESIAN_POINT ( 'NONE',  ( 2.108655161024910000, -6.425371825435551200, -0.5828211080807230700 ) ) ;
#162 = AXIS2_PLACEMENT_3D ( 'NONE', #37, #215, #202 ) ;
#163 = ORIENTED_EDGE ( 'NONE', *, *, #32, .F. ) ;
#164 = APPROVAL_PERSON_ORGANIZATION ( #102, #18, #146 ) ;
#165 = PERSON_AND_ORGANIZATION_ROLE ( 'design_owner' ) ;
#166 = VERTEX_POINT ( 'NONE', #94 ) ;
#167 = PERSON_AND_ORGANIZATION_ROLE ( 'creator' ) ;
#168 = DATE_TIME_ROLE ( 'creation_date' ) ;
#169 = APPROVAL_STATUS ( 'not_yet_approved' ) ;
#170 = ORIENTED_EDGE ( 'NONE', *, *, #32, .T. ) ;
#171 = PRODUCT ( '112-1111E UVFS pl-cv 12.7 F-75', '112-1111E UVFS pl-cv 12.7 F-75', '', ( #42 ) ) ;
#172 = CARTESIAN_POINT ( 'NONE',  ( 2.498001805406600200E-016, 1.221245327087670000E-015, -0.5691178255297700800 ) ) ;
#173 = PRODUCT_DEFINITION_FORMATION_WITH_SPECIFIED_SOURCE ( 'ANY', '', #171, .NOT_KNOWN. ) ;
#174 = ORIENTED_EDGE ( 'NONE', *, *, #43, .T. ) ;
#175 = ADVANCED_BREP_SHAPE_REPRESENTATION ( '112-1111E UVFS pl-cv 12.7 F-75', ( #121, #12 ), #103 ) ;
#176 = CARTESIAN_POINT ( 'NONE',  ( -4.302155027382156000, 2.165350998062655300, 0.002850393037686368900 ) ) ;
#177 = VERTEX_POINT ( 'NONE', #93 ) ;
#178 = LOCAL_TIME ( 14, 26, 50.00000000000000000, #225 ) ;
#179 = CARTESIAN_POINT ( 'NONE',  ( 0.0000000000000000000, 13.15799999999999900, 2.500000000000000000 ) ) ;
#180 = CARTESIAN_POINT ( 'NONE',  ( 9.540979117872439000E-015, -2.165350998062661100, 0.1964107762727154400 ) ) ;
#181 = CALENDAR_DATE ( 2019, 16, 1 ) ;
#182 = CC_DESIGN_PERSON_AND_ORGANIZATION_ASSIGNMENT ( #87, #165, ( #171 ) ) ;
#183 = CARTESIAN_POINT ( 'NONE',  ( 6.283436427930351600, 6.425371825435547600, -1.149370324586716400 ) ) ;
#184 = EDGE_LOOP ( 'NONE', ( #213, #119, #80 ) ) ;
#185 = CARTESIAN_POINT ( 'NONE',  ( 4.302155027382162300, 2.165350998062655700, 0.002850393037682574200 ) ) ;
#186 = UNCERTAINTY_MEASURE_WITH_UNIT (LENGTH_MEASURE( 1.000000000000000100E-005 ), #79, 'distance_accuracy_value', 'NONE');
#187 = AXIS2_PLACEMENT_3D ( 'NONE', #138, #141, #124 ) ;
#188 = CARTESIAN_POINT ( 'NONE',  ( 0.0000000000000000000, 0.0000000000000000000, 0.0000000000000000000 ) ) ;
#189 = VERTEX_POINT ( 'NONE', #144 ) ;
#190 = PERSON_AND_ORGANIZATION_ROLE ( 'design_supplier' ) ;
#191 = LOCAL_TIME ( 14, 26, 50.00000000000000000, #228 ) ;
#192 = APPROVAL ( #169, 'UNSPECIFIED' ) ;
#193 = SECURITY_CLASSIFICATION ( '', '', #114 ) ;
#194 = PRODUCT_DEFINITION_SHAPE ( 'NONE', 'NONE',  #199 ) ;
#195 = FACE_OUTER_BOUND ( 'NONE', #131, .T. ) ;
#196 = PERSON_AND_ORGANIZATION ( #116, #61 ) ;
#197 = PLANE ( 'NONE',  #229 ) ;
#198 = APPROVAL_DATE_TIME ( #210, #192 ) ;
#199 = PRODUCT_DEFINITION ( 'UNKNOWN', '', #173, #38 ) ;
#200 = CARTESIAN_POINT ( 'NONE',  ( -2.155431799127051300, -2.165350998062660600, 0.1964107762727158000 ) ) ;
#201 = CARTESIAN_POINT ( 'NONE',  ( 9.540979117872439000E-015, -6.425371825435551200, -0.5828211080807175200 ) ) ;
#202 = DIRECTION ( 'NONE',  ( 1.000000000000000000, 0.0000000000000000000, 0.0000000000000000000 ) ) ;
#203 = ORIENTED_EDGE ( 'NONE', *, *, #155, .T. ) ;
#204 = CC_DESIGN_DATE_AND_TIME_ASSIGNMENT ( #47, #168, ( #199 ) ) ;
#205 = CC_DESIGN_DATE_AND_TIME_ASSIGNMENT ( #105, #206, ( #193 ) ) ;
#206 = DATE_TIME_ROLE ( 'classification_date' ) ;
#207 = EDGE_LOOP ( 'NONE', ( #15, #203, #82, #90, #27 ) ) ;
#208 = APPROVAL_STATUS ( 'not_yet_approved' ) ;
#209 = CIRCLE ( 'NONE', #148, 6.349999999999999600 ) ;
#210 = DATE_AND_TIME ( #40, #11 ) ;
#211 = SHAPE_DEFINITION_REPRESENTATION ( #194, #175 ) ;
#212 = LINE ( 'NONE', #134, #21 ) ;
#213 = ORIENTED_EDGE ( 'NONE', *, *, #51, .F. ) ;
#214 = CARTESIAN_POINT ( 'NONE',  ( 2.498001805406600200E-016, 1.221245327087670000E-015, 2.500000000000000000 ) ) ;
#215 = DIRECTION ( 'NONE',  ( 0.0000000000000000000, 0.0000000000000000000, 1.000000000000000000 ) ) ;
#216 = CARTESIAN_POINT ( 'NONE',  ( 2.108655161024910000, 6.425371825435546700, -0.5828211080807230700 ) ) ;
#217 = ORIENTED_EDGE ( 'NONE', *, *, #62, .F. ) ;
#218 = CC_DESIGN_APPROVAL ( #122, ( #193 ) ) ;
#219 = CARTESIAN_POINT ( 'NONE',  ( -4.208790742389828300, -6.425371825435552100, -0.7721808926231026300 ) ) ;
#220 = CARTESIAN_POINT ( 'NONE',  ( 1.831778329541670200E-014, -2.165350998062660200, 0.1964107762727103400 ) ) ;
#221 = EDGE_LOOP ( 'NONE', ( #127, #78, #217 ) ) ;
#222 = APPLICATION_CONTEXT ( 'configuration controlled 3d designs of mechanical parts and assemblies' ) ;
#223 = PERSON_AND_ORGANIZATION ( #116, #61 ) ;
#224 = ORIENTED_EDGE ( 'NONE', *, *, #108, .T. ) ;
#225 = COORDINATED_UNIVERSAL_TIME_OFFSET ( 2, 0, .AHEAD. ) ;
#226 = CARTESIAN_POINT ( 'NONE',  ( 2.498001805406600200E-016, 1.221245327087670000E-015, -0.5691178255297700800 ) ) ;
#227 = VECTOR ( 'NONE', #156, 1000.000000000000000 ) ;
#228 = COORDINATED_UNIVERSAL_TIME_OFFSET ( 2, 0, .AHEAD. ) ;
#229 = AXIS2_PLACEMENT_3D ( 'NONE', #179, #104, #55 ) ;
#230 = LINE ( 'NONE', #140, #227 ) ;
#231 = CALENDAR_DATE ( 2019, 16, 1 ) ;
#232 = DIRECTION ( 'NONE',  ( 1.000000000000000000, 0.0000000000000000000, 0.0000000000000000000 ) ) ;
#233 = CARTESIAN_POINT ( 'NONE',  ( -6.422822913335751900, -2.165350998062661100, -0.3827062930322585000 ) ) ;
#234 =( BOUNDED_SURFACE ( )  B_SPLINE_SURFACE ( 3, 3, ( 
 ( #153, #98, #48, #29 ),
 ( #71, #176, #70, #132 ),
 ( #233, #74, #200, #180 ),
 ( #123, #219, #17, #201 ) ),
 .UNSPECIFIED., .F., .F., .F. ) 
 B_SPLINE_SURFACE_WITH_KNOTS ( ( 4, 4 ),
 ( 4, 4 ),
 ( 0.0000000000000000000, 1.000000000000000000 ),
 ( 0.0000000000000000000, 1.000000000000000000 ),
 .UNSPECIFIED. ) 
 GEOMETRIC_REPRESENTATION_ITEM ( )  RATIONAL_B_SPLINE_SURFACE ( (
 ( 1.000000000000000000, 0.9973064729225079600, 0.9973064729225079600, 1.000000000000000000),
 ( 0.9891193669731965800, 0.9864551471753825200, 0.9864551471753825200, 0.9891193669731965800),
 ( 0.9891193669731965800, 0.9864551471753825200, 0.9864551471753825200, 0.9891193669731965800),
 ( 1.000000000000000000, 0.9973064729225079600, 0.9973064729225079600, 1.000000000000000000) ) ) 
 REPRESENTATION_ITEM ( '' )  SURFACE ( )  );
#235 = AXIS2_PLACEMENT_3D ( 'NONE', #36, #157, #33 ) ;
ENDSEC;
END-ISO-10303-21;
