ISO-10303-21;
HEADER;
FILE_DESCRIPTION (( 'STEP AP203' ),
    '1' );
FILE_NAME ('112-1110E UVFS pl-cv 12.7 F-60.STEP',
    '2019-01-16T12:14:00',
    ( '' ),
    ( '' ),
    'SwSTEP 2.0',
    'SolidWorks 2017',
    '' );
FILE_SCHEMA (( 'CONFIG_CONTROL_DESIGN' ));
ENDSEC;

DATA;
#1 = CARTESIAN_POINT ( 'NONE',  ( -4.327376615626787000, -2.178864801091092500, 0.003984272291318299000 ) ) ;
#2 = CARTESIAN_POINT ( 'NONE',  ( -2.096719873446632600, -6.424895732495727400, -0.7320587389839786600 ) ) ;
#3 = CC_DESIGN_DATE_AND_TIME_ASSIGNMENT ( #127, #47, ( #98 ) ) ;
#4 = EDGE_CURVE ( 'NONE', #113, #148, #168, .T. ) ;
#5 = APPROVAL_DATE_TIME ( #210, #58 ) ;
#6 = MECHANICAL_CONTEXT ( 'NONE', #56, 'mechanical' ) ;
#7 = DIRECTION ( 'NONE',  ( 0.0000000000000000000, 0.0000000000000000000, 1.000000000000000000 ) ) ;
#8 = EDGE_LOOP ( 'NONE', ( #199, #117 ) ) ;
#9 = AXIS2_PLACEMENT_3D ( 'NONE', #27, #78, #26 ) ;
#10 = DATE_AND_TIME ( #59, #104 ) ;
#11 =( BOUNDED_SURFACE ( )  B_SPLINE_SURFACE ( 3, 3, ( 
 ( #108, #52, #175, #222 ),
 ( #109, #107, #54, #179 ),
 ( #154, #1, #69, #125 ),
 ( #20, #141, #2, #90 ) ),
 .UNSPECIFIED., .F., .F., .F. ) 
 B_SPLINE_SURFACE_WITH_KNOTS ( ( 4, 4 ),
 ( 4, 4 ),
 ( 0.0000000000000000000, 1.000000000000000000 ),
 ( 0.0000000000000000000, 1.000000000000000000 ),
 .UNSPECIFIED. ) 
 GEOMETRIC_REPRESENTATION_ITEM ( )  RATIONAL_B_SPLINE_SURFACE ( (
 ( 1.000000000000000000, 0.9957647880172656500, 0.9957647880172656500, 1.000000000000000000),
 ( 0.9829117941413638700, 0.9787489543328454800, 0.9787489543328454800, 0.9829117941413638700),
 ( 0.9829117941413638700, 0.9787489543328454800, 0.9787489543328454800, 0.9829117941413638700),
 ( 1.000000000000000000, 0.9957647880172656500, 0.9957647880172656500, 1.000000000000000000) ) ) 
 REPRESENTATION_ITEM ( '' )  SURFACE ( )  );
#12 = CC_DESIGN_PERSON_AND_ORGANIZATION_ASSIGNMENT ( #132, #72, ( #158 ) ) ;
#13 = EDGE_LOOP ( 'NONE', ( #171, #79, #38, #191, #208 ) ) ;
#14 = ADVANCED_FACE ( 'NONE', ( #139 ), #194, .T. ) ;
#15 = CARTESIAN_POINT ( 'NONE',  ( 2.498001805406600200E-016, 1.221245327087670000E-015, -0.7148729577328010200 ) ) ;
#16 = DIRECTION ( 'NONE',  ( 0.0000000000000000000, 0.0000000000000000000, 1.000000000000000000 ) ) ;
#17 = PERSON_AND_ORGANIZATION ( #50, #151 ) ;
#18 = ORIENTED_EDGE ( 'NONE', *, *, #29, .F. ) ;
#19 = APPROVAL ( #128, 'UNSPECIFIED' ) ;
#20 = CARTESIAN_POINT ( 'NONE',  ( -6.223728461929907100, -6.424895732495728300, -1.436955944092086000 ) ) ;
#21 = CLOSED_SHELL ( 'NONE', ( #197, #205, #146, #32, #14 ) ) ;
#22 = CARTESIAN_POINT ( 'NONE',  ( 0.0000000000000000000, 0.0000000000000000000, 0.0000000000000000000 ) ) ;
#23 = PERSON_AND_ORGANIZATION_ROLE ( 'design_owner' ) ;
#24 = EDGE_LOOP ( 'NONE', ( #165, #60, #53 ) ) ;
#25 = APPROVAL_DATE_TIME ( #105, #169 ) ;
#26 = DIRECTION ( 'NONE',  ( 1.000000000000000000, 0.0000000000000000000, 0.0000000000000000000 ) ) ;
#27 = CARTESIAN_POINT ( 'NONE',  ( 2.498001805406600200E-016, 1.221245327087670000E-015, -0.7148729577328010200 ) ) ;
#28 = VECTOR ( 'NONE', #7, 1000.000000000000000 ) ;
#29 = EDGE_CURVE ( 'NONE', #49, #31, #99, .T. ) ;
#30 = PERSON_AND_ORGANIZATION ( #50, #151 ) ;
#31 = VERTEX_POINT ( 'NONE', #87 ) ;
#32 = ADVANCED_FACE ( 'NONE', ( #177 ), #226, .T. ) ;
#33 = CC_DESIGN_SECURITY_CLASSIFICATION ( #98, ( #192 ) ) ;
#34 = ORIENTED_EDGE ( 'NONE', *, *, #219, .T. ) ;
#35 = PERSON_AND_ORGANIZATION ( #50, #151 ) ;
#36 = CARTESIAN_POINT ( 'NONE',  ( 6.442977510794964500, 2.178864801091087600, -0.4814673414066831200 ) ) ;
#37 = DIRECTION ( 'NONE',  ( 1.000000000000000000, 0.0000000000000000000, 0.0000000000000000000 ) ) ;
#38 = ORIENTED_EDGE ( 'NONE', *, *, #29, .T. ) ;
#39 = CARTESIAN_POINT ( 'NONE',  ( 2.096719873446634400, -6.424895732495729200, -0.7320587389839757800 ) ) ;
#40 = CARTESIAN_POINT ( 'NONE',  ( 2.498001805406600200E-016, 1.221245327087670000E-015, -0.7148729577328010200 ) ) ;
#41 = COORDINATED_UNIVERSAL_TIME_OFFSET ( 2, 0, .AHEAD. ) ;
#42 = SHAPE_DEFINITION_REPRESENTATION ( #227, #124 ) ;
#43 =( GEOMETRIC_REPRESENTATION_CONTEXT ( 3 ) GLOBAL_UNCERTAINTY_ASSIGNED_CONTEXT ( ( #112 ) ) GLOBAL_UNIT_ASSIGNED_CONTEXT ( ( #162, #161, #181 ) ) REPRESENTATION_CONTEXT ( 'NONE', 'WORKASPACE' ) );
#44 = APPROVAL_ROLE ( '' ) ;
#45 = LOCAL_TIME ( 14, 14, 0.0000000000000000000, #89 ) ;
#46 = APPLICATION_CONTEXT ( 'configuration controlled 3d designs of mechanical parts and assemblies' ) ;
#47 = DATE_TIME_ROLE ( 'classification_date' ) ;
#48 = ORIENTED_EDGE ( 'NONE', *, *, #228, .T. ) ;
#49 = VERTEX_POINT ( 'NONE', #235 ) ;
#50 = PERSON ( 'UNSPECIFIED', 'UNSPECIFIED', 'UNSPECIFIED', ('UNSPECIFIED'), ('UNSPECIFIED'), ('UNSPECIFIED') ) ;
#51 = CALENDAR_DATE ( 2019, 16, 1 ) ;
#52 = CARTESIAN_POINT ( 'NONE',  ( -4.180119667194572800, 6.424895732495726500, -0.9680238362273655400 ) ) ;
#53 = ORIENTED_EDGE ( 'NONE', *, *, #231, .F. ) ;
#54 = CARTESIAN_POINT ( 'NONE',  ( -2.170582967057093500, 2.178864801091090300, 0.2482619306389410900 ) ) ;
#55 = DIRECTION ( 'NONE',  ( 0.0000000000000000000, 0.0000000000000000000, 1.000000000000000000 ) ) ;
#56 = APPLICATION_CONTEXT ( 'configuration controlled 3d designs of mechanical parts and assemblies' ) ;
#57 = APPROVAL_STATUS ( 'not_yet_approved' ) ;
#58 = APPROVAL ( #57, 'UNSPECIFIED' ) ;
#59 = CALENDAR_DATE ( 2019, 16, 1 ) ;
#60 = ORIENTED_EDGE ( 'NONE', *, *, #193, .T. ) ;
#61 = DIRECTION ( 'NONE',  ( 0.0000000000000000000, 0.0000000000000000000, 1.000000000000000000 ) ) ;
#62 = CC_DESIGN_PERSON_AND_ORGANIZATION_ASSIGNMENT ( #182, #74, ( #192 ) ) ;
#63 = CYLINDRICAL_SURFACE ( 'NONE', #130, 6.349999999999999600 ) ;
#64 = VERTEX_POINT ( 'NONE', #140 ) ;
#65 = DIRECTION ( 'NONE',  ( 2.543642856077738600E-016, 1.000000000000000000, -4.859169400495258500E-016 ) ) ;
#66 = CARTESIAN_POINT ( 'NONE',  ( 6.223728461929913400, 6.424895732495724800, -1.436955944092083800 ) ) ;
#67 = CC_DESIGN_APPROVAL ( #19, ( #192 ) ) ;
#68 = DIRECTION ( 'NONE',  ( -0.0000000000000000000, -0.0000000000000000000, -1.000000000000000000 ) ) ;
#69 = CARTESIAN_POINT ( 'NONE',  ( -2.170582967057093500, -2.178864801091092900, 0.2482619306389409800 ) ) ;
#70 = CIRCLE ( 'NONE', #204, 28.55999999999999900 ) ;
#71 = CARTESIAN_POINT ( 'NONE',  ( 4.327376615626792300, -2.178864801091093800, 0.003984272291321171700 ) ) ;
#72 = PERSON_AND_ORGANIZATION_ROLE ( 'creator' ) ;
#73 = EDGE_CURVE ( 'NONE', #31, #64, #92, .T. ) ;
#74 = PERSON_AND_ORGANIZATION_ROLE ( 'creator' ) ;
#75 = COORDINATED_UNIVERSAL_TIME_OFFSET ( 2, 0, .AHEAD. ) ;
#76 = EDGE_LOOP ( 'NONE', ( #211, #187, #18 ) ) ;
#77 = CARTESIAN_POINT ( 'NONE',  ( -6.349999999999999600, 1.998896044546239400E-015, -0.7148729577328010200 ) ) ;
#78 = DIRECTION ( 'NONE',  ( 0.0000000000000000000, 0.0000000000000000000, 1.000000000000000000 ) ) ;
#79 = ORIENTED_EDGE ( 'NONE', *, *, #231, .T. ) ;
#80 = PERSON_AND_ORGANIZATION ( #50, #151 ) ;
#81 = MANIFOLD_SOLID_BREP ( 'Imported1', #21 ) ;
#82 = CC_DESIGN_DATE_AND_TIME_ASSIGNMENT ( #10, #186, ( #158 ) ) ;
#83 = CIRCLE ( 'NONE', #188, 6.349999999999999600 ) ;
#84 = DIRECTION ( 'NONE',  ( 0.0000000000000000000, 0.0000000000000000000, 1.000000000000000000 ) ) ;
#85 = PERSON_AND_ORGANIZATION ( #50, #151 ) ;
#86 = CIRCLE ( 'NONE', #118, 6.349999999999999600 ) ;
#87 = CARTESIAN_POINT ( 'NONE',  ( 6.349999999999999600, 1.221245327087670000E-015, -0.7148729577328010200 ) ) ;
#88 = CC_DESIGN_PERSON_AND_ORGANIZATION_ASSIGNMENT ( #85, #207, ( #192 ) ) ;
#89 = COORDINATED_UNIVERSAL_TIME_OFFSET ( 2, 0, .AHEAD. ) ;
#90 = CARTESIAN_POINT ( 'NONE',  ( -2.602085213965210600E-015, -6.424895732495729200, -0.7320587389839786600 ) ) ;
#91 = CARTESIAN_POINT ( 'NONE',  ( 6.349999999999999600, 1.221245327087670000E-015, -0.7148729577328010200 ) ) ;
#92 = CIRCLE ( 'NONE', #135, 6.349999999999999600 ) ;
#93 = CARTESIAN_POINT ( 'NONE',  ( 2.170582967057099700, 2.178864801091089800, 0.2482619306389439500 ) ) ;
#94 = CARTESIAN_POINT ( 'NONE',  ( 2.096719873446637000, 6.424895732495724800, -0.7320587389839757800 ) ) ;
#95 = APPROVAL_DATE_TIME ( #143, #19 ) ;
#96 = DIRECTION ( 'NONE',  ( 0.0000000000000000000, 0.0000000000000000000, 1.000000000000000000 ) ) ;
#97 = CARTESIAN_POINT ( 'NONE',  ( 2.498001805406600200E-016, 1.221245327087670000E-015, -0.7148729577328010200 ) ) ;
#98 = SECURITY_CLASSIFICATION ( '', '', #209 ) ;
#99 = CIRCLE ( 'NONE', #172, 6.349999999999999600 ) ;
#100 = COORDINATED_UNIVERSAL_TIME_OFFSET ( 2, 0, .AHEAD. ) ;
#101 = AXIS2_PLACEMENT_3D ( 'NONE', #215, #214, #138 ) ;
#102 = AXIS2_PLACEMENT_3D ( 'NONE', #170, #61, #114 ) ;
#103 = ORIENTED_EDGE ( 'NONE', *, *, #119, .T. ) ;
#104 = LOCAL_TIME ( 14, 14, 0.0000000000000000000, #75 ) ;
#105 = DATE_AND_TIME ( #159, #45 ) ;
#106 = CARTESIAN_POINT ( 'NONE',  ( 0.0000000000000000000, -1.776356839400250100E-015, -28.55999999999999900 ) ) ;
#107 = CARTESIAN_POINT ( 'NONE',  ( -4.327376615626787000, 2.178864801091090700, 0.003984272291318732700 ) ) ;
#108 = CARTESIAN_POINT ( 'NONE',  ( -6.223728461929905400, 6.424895732495727400, -1.436955944092086000 ) ) ;
#109 = CARTESIAN_POINT ( 'NONE',  ( -6.442977510794959200, 2.178864801091091200, -0.4814673414066851800 ) ) ;
#110 = APPROVAL_STATUS ( 'not_yet_approved' ) ;
#111 = LINE ( 'NONE', #129, #28 ) ;
#112 = UNCERTAINTY_MEASURE_WITH_UNIT (LENGTH_MEASURE( 1.000000000000000100E-005 ), #162, 'distance_accuracy_value', 'NONE');
#113 = VERTEX_POINT ( 'NONE', #202 ) ;
#114 = DIRECTION ( 'NONE',  ( 1.000000000000000000, 0.0000000000000000000, 0.0000000000000000000 ) ) ;
#115 = PRODUCT ( '112-1110E UVFS pl-cv 12.7 F-60', '112-1110E UVFS pl-cv 12.7 F-60', '', ( #6 ) ) ;
#116 = CALENDAR_DATE ( 2019, 16, 1 ) ;
#117 = ORIENTED_EDGE ( 'NONE', *, *, #119, .F. ) ;
#118 = AXIS2_PLACEMENT_3D ( 'NONE', #97, #224, #223 ) ;
#119 = EDGE_CURVE ( 'NONE', #148, #113, #83, .T. ) ;
#120 = CARTESIAN_POINT ( 'NONE',  ( 6.442977510794963600, -2.178864801091095100, -0.4814673414066830700 ) ) ;
#121 = DIRECTION ( 'NONE',  ( 1.000000000000000000, 0.0000000000000000000, 0.0000000000000000000 ) ) ;
#122 = DIRECTION ( 'NONE',  ( 1.000000000000000000, 0.0000000000000000000, 0.0000000000000000000 ) ) ;
#123 = LINE ( 'NONE', #91, #167 ) ;
#124 = ADVANCED_BREP_SHAPE_REPRESENTATION ( '112-1110E UVFS pl-cv 12.7 F-60', ( #81, #145 ), #43 ) ;
#125 = CARTESIAN_POINT ( 'NONE',  ( -8.673617379884035500E-016, -2.178864801091093400, 0.2482619306389409500 ) ) ;
#126 = CARTESIAN_POINT ( 'NONE',  ( 2.498001805406600200E-016, 1.221245327087670000E-015, -0.7148729577328010200 ) ) ;
#127 = DATE_AND_TIME ( #173, #229 ) ;
#128 = APPROVAL_STATUS ( 'not_yet_approved' ) ;
#129 = CARTESIAN_POINT ( 'NONE',  ( -6.349999999999999600, 1.998896044546239400E-015, -0.7148729577328010200 ) ) ;
#130 = AXIS2_PLACEMENT_3D ( 'NONE', #40, #55, #185 ) ;
#131 = FACE_OUTER_BOUND ( 'NONE', #76, .T. ) ;
#132 = PERSON_AND_ORGANIZATION ( #50, #151 ) ;
#133 = CIRCLE ( 'NONE', #9, 6.349999999999999600 ) ;
#134 = CARTESIAN_POINT ( 'NONE',  ( 0.0000000000000000000, 13.15799999999999900, 2.399999999999999900 ) ) ;
#135 = AXIS2_PLACEMENT_3D ( 'NONE', #126, #152, #122 ) ;
#136 = LOCAL_TIME ( 14, 14, 0.0000000000000000000, #189 ) ;
#137 = APPROVAL_PERSON_ORGANIZATION ( #35, #169, #163 ) ;
#138 = DIRECTION ( 'NONE',  ( 1.000000000000000000, 0.0000000000000000000, 0.0000000000000000000 ) ) ;
#139 = FACE_OUTER_BOUND ( 'NONE', #8, .T. ) ;
#140 = CARTESIAN_POINT ( 'NONE',  ( 7.736198946050042500E-015, 6.349999999999996100, -0.7148729577327993500 ) ) ;
#141 = CARTESIAN_POINT ( 'NONE',  ( -4.180119667194574600, -6.424895732495727400, -0.9680238362273655400 ) ) ;
#142 = CARTESIAN_POINT ( 'NONE',  ( 6.223728461929908900, -6.424895732495731000, -1.436955944092083600 ) ) ;
#143 = DATE_AND_TIME ( #116, #136 ) ;
#144 = APPROVAL_ROLE ( '' ) ;
#145 = AXIS2_PLACEMENT_3D ( 'NONE', #22, #96, #183 ) ;
#146 = ADVANCED_FACE ( 'NONE', ( #131 ), #164, .F. ) ;
#147 = APPLICATION_PROTOCOL_DEFINITION ( 'international standard', 'config_control_design', 1994, #46 ) ;
#148 = VERTEX_POINT ( 'NONE', #217 ) ;
#149 = CC_DESIGN_PERSON_AND_ORGANIZATION_ASSIGNMENT ( #80, #225, ( #98 ) ) ;
#150 = APPROVAL_PERSON_ORGANIZATION ( #216, #58, #144 ) ;
#151 = ORGANIZATION ( 'UNSPECIFIED', 'UNSPECIFIED', '' ) ;
#152 = DIRECTION ( 'NONE',  ( 0.0000000000000000000, 0.0000000000000000000, 1.000000000000000000 ) ) ;
#153 = EDGE_LOOP ( 'NONE', ( #184, #48, #34, #103, #220 ) ) ;
#154 = CARTESIAN_POINT ( 'NONE',  ( -6.442977510794959200, -2.178864801091092000, -0.4814673414066855700 ) ) ;
#155 = CARTESIAN_POINT ( 'NONE',  ( 7.751471923961347200E-015, 6.424895732495726500, -0.7320587389839754400 ) ) ;
#156 = CARTESIAN_POINT ( 'NONE',  ( 2.170582967057098400, -2.178864801091092900, 0.2482619306389439500 ) ) ;
#157 = FACE_OUTER_BOUND ( 'NONE', #153, .T. ) ;
#158 = PRODUCT_DEFINITION ( 'UNKNOWN', '', #192, #195 ) ;
#159 = CALENDAR_DATE ( 2019, 16, 1 ) ;
#160 = AXIS2_PLACEMENT_3D ( 'NONE', #134, #16, #233 ) ;
#161 =( NAMED_UNIT ( * ) PLANE_ANGLE_UNIT ( ) SI_UNIT ( $, .RADIAN. ) );
#162 =( LENGTH_UNIT ( ) NAMED_UNIT ( * ) SI_UNIT ( .MILLI., .METRE. ) );
#163 = APPROVAL_ROLE ( '' ) ;
#164 =( BOUNDED_SURFACE ( )  B_SPLINE_SURFACE ( 3, 3, ( 
 ( #155, #94, #200, #66 ),
 ( #221, #93, #234, #36 ),
 ( #180, #156, #71, #120 ),
 ( #218, #39, #176, #142 ) ),
 .UNSPECIFIED., .F., .F., .F. ) 
 B_SPLINE_SURFACE_WITH_KNOTS ( ( 4, 4 ),
 ( 4, 4 ),
 ( 0.0000000000000000000, 1.000000000000000000 ),
 ( 0.0000000000000000000, 1.000000000000000000 ),
 .UNSPECIFIED. ) 
 GEOMETRIC_REPRESENTATION_ITEM ( )  RATIONAL_B_SPLINE_SURFACE ( (
 ( 1.000000000000000000, 0.9957647880172656500, 0.9957647880172656500, 1.000000000000000000),
 ( 0.9829117941413638700, 0.9787489543328454800, 0.9787489543328454800, 0.9829117941413638700),
 ( 0.9829117941413638700, 0.9787489543328454800, 0.9787489543328454800, 0.9829117941413638700),
 ( 1.000000000000000000, 0.9957647880172656500, 0.9957647880172656500, 1.000000000000000000) ) ) 
 REPRESENTATION_ITEM ( '' )  SURFACE ( )  );
#165 = ORIENTED_EDGE ( 'NONE', *, *, #228, .F. ) ;
#166 = APPLICATION_PROTOCOL_DEFINITION ( 'international standard', 'config_control_design', 1994, #56 ) ;
#167 = VECTOR ( 'NONE', #201, 1000.000000000000000 ) ;
#168 = CIRCLE ( 'NONE', #101, 6.349999999999999600 ) ;
#169 = APPROVAL ( #110, 'UNSPECIFIED' ) ;
#170 = CARTESIAN_POINT ( 'NONE',  ( 2.498001805406600200E-016, 1.221245327087670000E-015, -0.7148729577328010200 ) ) ;
#171 = ORIENTED_EDGE ( 'NONE', *, *, #219, .F. ) ;
#172 = AXIS2_PLACEMENT_3D ( 'NONE', #15, #84, #121 ) ;
#173 = CALENDAR_DATE ( 2019, 16, 1 ) ;
#174 = CARTESIAN_POINT ( 'NONE',  ( 2.498001805406600200E-016, 1.221245327087670000E-015, 2.399999999999999900 ) ) ;
#175 = CARTESIAN_POINT ( 'NONE',  ( -2.096719873446629900, 6.424895732495726500, -0.7320587389839786600 ) ) ;
#176 = CARTESIAN_POINT ( 'NONE',  ( 4.180119667194575500, -6.424895732495729200, -0.9680238362273629900 ) ) ;
#177 = FACE_OUTER_BOUND ( 'NONE', #13, .T. ) ;
#178 = EDGE_CURVE ( 'NONE', #31, #113, #123, .T. ) ;
#179 = CARTESIAN_POINT ( 'NONE',  ( -8.673617379884035500E-016, 2.178864801091089400, 0.2482619306389412000 ) ) ;
#180 = CARTESIAN_POINT ( 'NONE',  ( 5.778479073015527400E-015, -2.178864801091092900, 0.2482619306389444400 ) ) ;
#181 =( NAMED_UNIT ( * ) SI_UNIT ( $, .STERADIAN. ) SOLID_ANGLE_UNIT ( ) );
#182 = PERSON_AND_ORGANIZATION ( #50, #151 ) ;
#183 = DIRECTION ( 'NONE',  ( 1.000000000000000000, 0.0000000000000000000, 0.0000000000000000000 ) ) ;
#184 = ORIENTED_EDGE ( 'NONE', *, *, #73, .T. ) ;
#185 = DIRECTION ( 'NONE',  ( 1.000000000000000000, 0.0000000000000000000, 0.0000000000000000000 ) ) ;
#186 = DATE_TIME_ROLE ( 'creation_date' ) ;
#187 = ORIENTED_EDGE ( 'NONE', *, *, #73, .F. ) ;
#188 = AXIS2_PLACEMENT_3D ( 'NONE', #174, #68, #37 ) ;
#189 = COORDINATED_UNIVERSAL_TIME_OFFSET ( 2, 0, .AHEAD. ) ;
#190 = CC_DESIGN_PERSON_AND_ORGANIZATION_ASSIGNMENT ( #30, #23, ( #115 ) ) ;
#191 = ORIENTED_EDGE ( 'NONE', *, *, #178, .T. ) ;
#192 = PRODUCT_DEFINITION_FORMATION_WITH_SPECIFIED_SOURCE ( 'ANY', '', #115, .NOT_KNOWN. ) ;
#193 = EDGE_CURVE ( 'NONE', #64, #49, #70, .T. ) ;
#194 = PLANE ( 'NONE',  #160 ) ;
#195 = DESIGN_CONTEXT ( 'detailed design', #46, 'design' ) ;
#196 = APPROVAL_PERSON_ORGANIZATION ( #17, #19, #44 ) ;
#197 = ADVANCED_FACE ( 'NONE', ( #213 ), #11, .F. ) ;
#198 = DIRECTION ( 'NONE',  ( 1.000000000000000000, -2.543642856077740100E-016, -2.198225105293790000E-016 ) ) ;
#199 = ORIENTED_EDGE ( 'NONE', *, *, #4, .F. ) ;
#200 = CARTESIAN_POINT ( 'NONE',  ( 4.180119667194579900, 6.424895732495724800, -0.9680238362273631000 ) ) ;
#201 = DIRECTION ( 'NONE',  ( 0.0000000000000000000, 0.0000000000000000000, 1.000000000000000000 ) ) ;
#202 = CARTESIAN_POINT ( 'NONE',  ( 6.349999999999999600, 1.221245327087670000E-015, 2.399999999999999900 ) ) ;
#203 = CC_DESIGN_APPROVAL ( #169, ( #98 ) ) ;
#204 = AXIS2_PLACEMENT_3D ( 'NONE', #106, #198, #65 ) ;
#205 = ADVANCED_FACE ( 'NONE', ( #157 ), #63, .T. ) ;
#206 = PRODUCT_RELATED_PRODUCT_CATEGORY ( 'detail', '', ( #115 ) ) ;
#207 = PERSON_AND_ORGANIZATION_ROLE ( 'design_supplier' ) ;
#208 = ORIENTED_EDGE ( 'NONE', *, *, #4, .T. ) ;
#209 = SECURITY_CLASSIFICATION_LEVEL ( 'unclassified' ) ;
#210 = DATE_AND_TIME ( #51, #232 ) ;
#211 = ORIENTED_EDGE ( 'NONE', *, *, #193, .F. ) ;
#212 = CC_DESIGN_APPROVAL ( #58, ( #158 ) ) ;
#213 = FACE_OUTER_BOUND ( 'NONE', #24, .T. ) ;
#214 = DIRECTION ( 'NONE',  ( -0.0000000000000000000, -0.0000000000000000000, -1.000000000000000000 ) ) ;
#215 = CARTESIAN_POINT ( 'NONE',  ( 2.498001805406600200E-016, 1.221245327087670000E-015, 2.399999999999999900 ) ) ;
#216 = PERSON_AND_ORGANIZATION ( #50, #151 ) ;
#217 = CARTESIAN_POINT ( 'NONE',  ( -6.349999999999999600, 1.998896044546239400E-015, 2.399999999999999900 ) ) ;
#218 = CARTESIAN_POINT ( 'NONE',  ( 4.482943897759923300E-015, -6.424895732495729200, -0.7320587389839754400 ) ) ;
#219 = EDGE_CURVE ( 'NONE', #230, #148, #111, .T. ) ;
#220 = ORIENTED_EDGE ( 'NONE', *, *, #178, .F. ) ;
#221 = CARTESIAN_POINT ( 'NONE',  ( 6.886929850146446600E-015, 2.178864801091090300, 0.2482619306389444400 ) ) ;
#222 = CARTESIAN_POINT ( 'NONE',  ( 8.673617379884035500E-016, 6.424895732495726500, -0.7320587389839786600 ) ) ;
#223 = DIRECTION ( 'NONE',  ( 1.000000000000000000, 0.0000000000000000000, 0.0000000000000000000 ) ) ;
#224 = DIRECTION ( 'NONE',  ( 0.0000000000000000000, 0.0000000000000000000, 1.000000000000000000 ) ) ;
#225 = PERSON_AND_ORGANIZATION_ROLE ( 'classification_officer' ) ;
#226 = CYLINDRICAL_SURFACE ( 'NONE', #102, 6.349999999999999600 ) ;
#227 = PRODUCT_DEFINITION_SHAPE ( 'NONE', 'NONE',  #158 ) ;
#228 = EDGE_CURVE ( 'NONE', #64, #230, #86, .T. ) ;
#229 = LOCAL_TIME ( 14, 14, 0.0000000000000000000, #41 ) ;
#230 = VERTEX_POINT ( 'NONE', #77 ) ;
#231 = EDGE_CURVE ( 'NONE', #230, #49, #133, .T. ) ;
#232 = LOCAL_TIME ( 14, 14, 0.0000000000000000000, #100 ) ;
#233 = DIRECTION ( 'NONE',  ( 1.000000000000000000, 0.0000000000000000000, -0.0000000000000000000 ) ) ;
#234 = CARTESIAN_POINT ( 'NONE',  ( 4.327376615626792300, 2.178864801091088900, 0.003984272291321063300 ) ) ;
#235 = CARTESIAN_POINT ( 'NONE',  ( 4.505772518831313000E-015, -6.349999999999997000, -0.7148729577328011300 ) ) ;
ENDSEC;
END-ISO-10303-21;
