ISO-10303-21;
HEADER;
FILE_DESCRIPTION (( 'STEP AP203' ),
    '1' );
FILE_NAME ('112-1109E UVFS pl-cv 12.7 F-50.STEP',
    '2019-01-16T11:56:51',
    ( '' ),
    ( '' ),
    'SwSTEP 2.0',
    'SolidWorks 2017',
    '' );
FILE_SCHEMA (( 'CONFIG_CONTROL_DESIGN' ));
ENDSEC;

DATA;
#1 = CARTESIAN_POINT ( 'NONE',  ( -6.468195923454444200, 2.195772526892456600, -0.5821901880178630400 ) ) ;
#2 = CARTESIAN_POINT ( 'NONE',  ( 2.498001805406600200E-016, 1.221245327087670000E-015, 2.200000000000000600 ) ) ;
#3 = COORDINATED_UNIVERSAL_TIME_OFFSET ( 2, 0, .AHEAD. ) ;
#4 = LOCAL_TIME ( 13, 56, 51.00000000000000000, #102 ) ;
#5 = VERTEX_POINT ( 'NONE', #121 ) ;
#6 = AXIS2_PLACEMENT_3D ( 'NONE', #166, #57, #20 ) ;
#7 = COORDINATED_UNIVERSAL_TIME_OFFSET ( 2, 0, .AHEAD. ) ;
#8 = PRODUCT_RELATED_PRODUCT_CATEGORY ( 'detail', '', ( #215 ) ) ;
#9 = ORIENTED_EDGE ( 'NONE', *, *, #33, .F. ) ;
#10 = DATE_AND_TIME ( #96, #198 ) ;
#11 = PERSON_AND_ORGANIZATION_ROLE ( 'design_supplier' ) ;
#12 = APPLICATION_PROTOCOL_DEFINITION ( 'international standard', 'config_control_design', 1994, #217 ) ;
#13 = FACE_OUTER_BOUND ( 'NONE', #125, .T. ) ;
#14 = APPROVAL_STATUS ( 'not_yet_approved' ) ;
#15 = AXIS2_PLACEMENT_3D ( 'NONE', #64, #113, #45 ) ;
#16 = DIRECTION ( 'NONE',  ( 0.0000000000000000000, 0.0000000000000000000, 1.000000000000000000 ) ) ;
#17 = CARTESIAN_POINT ( 'NONE',  ( -2.189563359313093200, 2.195772526892456200, 0.3019553349840632400 ) ) ;
#18 = VERTEX_POINT ( 'NONE', #234 ) ;
#19 = DIRECTION ( 'NONE',  ( 0.0000000000000000000, 0.0000000000000000000, 1.000000000000000000 ) ) ;
#20 = DIRECTION ( 'NONE',  ( 1.000000000000000000, 0.0000000000000000000, 0.0000000000000000000 ) ) ;
#21 = AXIS2_PLACEMENT_3D ( 'NONE', #169, #26, #210 ) ;
#22 = DATE_TIME_ROLE ( 'creation_date' ) ;
#23 = DIRECTION ( 'NONE',  ( 1.000000000000000000, 0.0000000000000000000, 0.0000000000000000000 ) ) ;
#24 = APPROVAL_DATE_TIME ( #71, #100 ) ;
#25 = PERSON_AND_ORGANIZATION_ROLE ( 'design_owner' ) ;
#26 = DIRECTION ( 'NONE',  ( 0.0000000000000000000, 0.0000000000000000000, 1.000000000000000000 ) ) ;
#27 = VERTEX_POINT ( 'NONE', #203 ) ;
#28 = CARTESIAN_POINT ( 'NONE',  ( 6.468195923454439700, -2.195772526892447700, -0.5821901880178563800 ) ) ;
#29 = CC_DESIGN_SECURITY_CLASSIFICATION ( #82, ( #85 ) ) ;
#30 = CARTESIAN_POINT ( 'NONE',  ( 6.468195923454439700, 2.195772526892456200, -0.5821901880178540500 ) ) ;
#31 = COORDINATED_UNIVERSAL_TIME_OFFSET ( 2, 0, .AHEAD. ) ;
#32 = CIRCLE ( 'NONE', #153, 6.349999999999999600 ) ;
#33 = EDGE_CURVE ( 'NONE', #38, #79, #119, .T. ) ;
#34 = AXIS2_PLACEMENT_3D ( 'NONE', #112, #167, #23 ) ;
#35 = PERSON_AND_ORGANIZATION ( #140, #170 ) ;
#36 = MECHANICAL_CONTEXT ( 'NONE', #217, 'mechanical' ) ;
#37 = PRODUCT_DEFINITION_SHAPE ( 'NONE', 'NONE',  #118 ) ;
#38 = VERTEX_POINT ( 'NONE', #142 ) ;
#39 = CARTESIAN_POINT ( 'NONE',  ( -6.468195923454445100, -2.195772526892447300, -0.5821901880178651500 ) ) ;
#40 = CALENDAR_DATE ( 2019, 16, 1 ) ;
#41 = CARTESIAN_POINT ( 'NONE',  ( -1.734723475976806900E-015, 2.195772526892456600, 0.3019553349840637900 ) ) ;
#42 = CARTESIAN_POINT ( 'NONE',  ( -2.081874256861010700, 6.424304716581960200, -0.8834490180458733900 ) ) ;
#43 = CARTESIAN_POINT ( 'NONE',  ( 5.329070518200749800E-015, 7.105427357601000300E-015, -23.80000000000000100 ) ) ;
#44 = COORDINATED_UNIVERSAL_TIME_OFFSET ( 2, 0, .AHEAD. ) ;
#45 = DIRECTION ( 'NONE',  ( 1.000000000000000000, 0.0000000000000000000, -0.0000000000000000000 ) ) ;
#46 = EDGE_LOOP ( 'NONE', ( #47, #199, #221, #163, #157 ) ) ;
#47 = ORIENTED_EDGE ( 'NONE', *, *, #94, .F. ) ;
#48 = CARTESIAN_POINT ( 'NONE',  ( 5.329070518200749800E-015, 2.195772526892455700, 0.3019553349840681800 ) ) ;
#49 = AXIS2_PLACEMENT_3D ( 'NONE', #2, #75, #209 ) ;
#50 = FACE_OUTER_BOUND ( 'NONE', #141, .T. ) ;
#51 = LOCAL_TIME ( 13, 56, 51.00000000000000000, #3 ) ;
#52 = CC_DESIGN_PERSON_AND_ORGANIZATION_ASSIGNMENT ( #35, #223, ( #118 ) ) ;
#53 =( NAMED_UNIT ( * ) SI_UNIT ( $, .STERADIAN. ) SOLID_ANGLE_UNIT ( ) );
#54 = CARTESIAN_POINT ( 'NONE',  ( -6.150071211274596500, -6.424304716581951300, -1.724109689420137100 ) ) ;
#55 = CIRCLE ( 'NONE', #49, 6.349999999999999600 ) ;
#56 = CARTESIAN_POINT ( 'NONE',  ( 5.329070518200749800E-015, -6.349999999999992500, -0.8627486389497842600 ) ) ;
#57 = DIRECTION ( 'NONE',  ( 0.0000000000000000000, 0.0000000000000000000, 1.000000000000000000 ) ) ;
#58 = APPROVAL_ROLE ( '' ) ;
#59 = PERSON_AND_ORGANIZATION ( #140, #170 ) ;
#60 = DIRECTION ( 'NONE',  ( 0.0000000000000000000, 0.0000000000000000000, 1.000000000000000000 ) ) ;
#61 = ORIENTED_EDGE ( 'NONE', *, *, #81, .T. ) ;
#62 = ORIENTED_EDGE ( 'NONE', *, *, #127, .F. ) ;
#63 = APPLICATION_PROTOCOL_DEFINITION ( 'international standard', 'config_control_design', 1994, #211 ) ;
#64 = CARTESIAN_POINT ( 'NONE',  ( 0.0000000000000000000, 13.15799999999999900, 2.200000000000000200 ) ) ;
#65 = CC_DESIGN_DATE_AND_TIME_ASSIGNMENT ( #10, #22, ( #118 ) ) ;
#66 = CARTESIAN_POINT ( 'NONE',  ( 4.144567513485398500, 6.424304716581960200, -1.165401053783945400 ) ) ;
#67 = DIRECTION ( 'NONE',  ( 0.0000000000000000000, 0.0000000000000000000, 1.000000000000000000 ) ) ;
#68 = MANIFOLD_SOLID_BREP ( 'Imported1', #204 ) ;
#69 = AXIS2_PLACEMENT_3D ( 'NONE', #132, #67, #145 ) ;
#70 = CARTESIAN_POINT ( 'NONE',  ( -2.081874256861012000, -6.424304716581952200, -0.8834490180458763900 ) ) ;
#71 = DATE_AND_TIME ( #117, #218 ) ;
#72 = CC_DESIGN_PERSON_AND_ORGANIZATION_ASSIGNMENT ( #229, #25, ( #215 ) ) ;
#73 = DIRECTION ( 'NONE',  ( 0.0000000000000000000, 1.000000000000000000, 2.915501640297154800E-016 ) ) ;
#74 = DIRECTION ( 'NONE',  ( -0.0000000000000000000, -0.0000000000000000000, -1.000000000000000000 ) ) ;
#75 = DIRECTION ( 'NONE',  ( -0.0000000000000000000, -0.0000000000000000000, -1.000000000000000000 ) ) ;
#76 = CIRCLE ( 'NONE', #69, 6.349999999999999600 ) ;
#77 = DIRECTION ( 'NONE',  ( 1.000000000000000000, 0.0000000000000000000, 0.0000000000000000000 ) ) ;
#78 = ORIENTED_EDGE ( 'NONE', *, *, #205, .F. ) ;
#79 = VERTEX_POINT ( 'NONE', #90 ) ;
#80 = VECTOR ( 'NONE', #19, 1000.000000000000000 ) ;
#81 = EDGE_CURVE ( 'NONE', #79, #18, #32, .T. ) ;
#82 = SECURITY_CLASSIFICATION ( '', '', #134 ) ;
#83 = DATE_AND_TIME ( #40, #4 ) ;
#84 = CIRCLE ( 'NONE', #6, 6.349999999999999600 ) ;
#85 = PRODUCT_DEFINITION_FORMATION_WITH_SPECIFIED_SOURCE ( 'ANY', '', #215, .NOT_KNOWN. ) ;
#86 = ADVANCED_BREP_SHAPE_REPRESENTATION ( '112-1109E UVFS pl-cv 12.7 F-50', ( #68, #108 ), #230 ) ;
#87 = CALENDAR_DATE ( 2019, 16, 1 ) ;
#88 = PERSON_AND_ORGANIZATION_ROLE ( 'creator' ) ;
#89 = DIRECTION ( 'NONE',  ( 1.000000000000000000, 0.0000000000000000000, 0.0000000000000000000 ) ) ;
#90 = CARTESIAN_POINT ( 'NONE',  ( 5.329070518200749800E-015, 6.350000000000000500, -0.8627486389497808200 ) ) ;
#91 = CYLINDRICAL_SURFACE ( 'NONE', #21, 6.349999999999999600 ) ;
#92 = CARTESIAN_POINT ( 'NONE',  ( -2.189563359313094100, -2.195772526892447300, 0.3019553349840611900 ) ) ;
#93 = CARTESIAN_POINT ( 'NONE',  ( 2.498001805406600200E-016, 1.221245327087670000E-015, -0.8627486389497830400 ) ) ;
#94 = EDGE_CURVE ( 'NONE', #18, #5, #172, .T. ) ;
#95 = CARTESIAN_POINT ( 'NONE',  ( -8.673617379884035500E-016, 6.424304716581960200, -0.8834490180458727200 ) ) ;
#96 = CALENDAR_DATE ( 2019, 16, 1 ) ;
#97 = APPROVAL ( #122, 'UNSPECIFIED' ) ;
#98 = CARTESIAN_POINT ( 'NONE',  ( 6.150071211274590300, 6.424304716581960200, -1.724109689420124900 ) ) ;
#99 = APPROVAL_PERSON_ORGANIZATION ( #129, #222, #155 ) ;
#100 = APPROVAL ( #14, 'UNSPECIFIED' ) ;
#101 = VERTEX_POINT ( 'NONE', #56 ) ;
#102 = COORDINATED_UNIVERSAL_TIME_OFFSET ( 2, 0, .AHEAD. ) ;
#103 = EDGE_CURVE ( 'NONE', #38, #27, #179, .T. ) ;
#104 = CARTESIAN_POINT ( 'NONE',  ( -1.734723475976807100E-015, -6.424304716581952200, -0.8834490180458758300 ) ) ;
#105 = CARTESIAN_POINT ( 'NONE',  ( 6.349999999999999600, 1.221245327087670000E-015, -0.8627486389497830400 ) ) ;
#106 = CYLINDRICAL_SURFACE ( 'NONE', #34, 6.349999999999999600 ) ;
#107 = CARTESIAN_POINT ( 'NONE',  ( 2.498001805406600200E-016, 1.221245327087670000E-015, -0.8627486389497830400 ) ) ;
#108 = AXIS2_PLACEMENT_3D ( 'NONE', #168, #189, #77 ) ;
#109 = CARTESIAN_POINT ( 'NONE',  ( -6.349999999999999600, 1.998896044546239400E-015, -0.8627486389497830400 ) ) ;
#110 = EDGE_LOOP ( 'NONE', ( #123, #62 ) ) ;
#111 = CC_DESIGN_PERSON_AND_ORGANIZATION_ASSIGNMENT ( #188, #124, ( #82 ) ) ;
#112 = CARTESIAN_POINT ( 'NONE',  ( 2.498001805406600200E-016, 1.221245327087670000E-015, -0.8627486389497830400 ) ) ;
#113 = DIRECTION ( 'NONE',  ( 0.0000000000000000000, 0.0000000000000000000, 1.000000000000000000 ) ) ;
#114 = ORIENTED_EDGE ( 'NONE', *, *, #33, .T. ) ;
#115 = CARTESIAN_POINT ( 'NONE',  ( 2.189563359313092300, -2.195772526892448600, 0.3019553349840659000 ) ) ;
#116 = EDGE_CURVE ( 'NONE', #79, #101, #139, .T. ) ;
#117 = CALENDAR_DATE ( 2019, 16, 1 ) ;
#118 = PRODUCT_DEFINITION ( 'UNKNOWN', '', #85, #128 ) ;
#119 = CIRCLE ( 'NONE', #138, 6.349999999999999600 ) ;
#120 = APPROVAL_PERSON_ORGANIZATION ( #224, #100, #161 ) ;
#121 = CARTESIAN_POINT ( 'NONE',  ( -6.349999999999999600, 1.998896044546239400E-015, 2.200000000000000600 ) ) ;
#122 = APPROVAL_STATUS ( 'not_yet_approved' ) ;
#123 = ORIENTED_EDGE ( 'NONE', *, *, #216, .F. ) ;
#124 = PERSON_AND_ORGANIZATION_ROLE ( 'classification_officer' ) ;
#125 = EDGE_LOOP ( 'NONE', ( #114, #61, #214, #162, #137 ) ) ;
#126 = UNCERTAINTY_MEASURE_WITH_UNIT (LENGTH_MEASURE( 1.000000000000000100E-005 ), #160, 'distance_accuracy_value', 'NONE');
#127 = EDGE_CURVE ( 'NONE', #5, #27, #55, .T. ) ;
#128 = DESIGN_CONTEXT ( 'detailed design', #211, 'design' ) ;
#129 = PERSON_AND_ORGANIZATION ( #140, #170 ) ;
#130 = ORIENTED_EDGE ( 'NONE', *, *, #227, .F. ) ;
#131 = CC_DESIGN_APPROVAL ( #97, ( #85 ) ) ;
#132 = CARTESIAN_POINT ( 'NONE',  ( 2.498001805406600200E-016, 1.221245327087670000E-015, -0.8627486389497830400 ) ) ;
#133 = APPROVAL_DATE_TIME ( #232, #97 ) ;
#134 = SECURITY_CLASSIFICATION_LEVEL ( 'unclassified' ) ;
#135 = ADVANCED_FACE ( 'NONE', ( #177 ), #106, .T. ) ;
#136 = FACE_OUTER_BOUND ( 'NONE', #176, .T. ) ;
#137 = ORIENTED_EDGE ( 'NONE', *, *, #103, .F. ) ;
#138 = AXIS2_PLACEMENT_3D ( 'NONE', #93, #200, #89 ) ;
#139 = CIRCLE ( 'NONE', #164, 23.80000000000000100 ) ;
#140 = PERSON ( 'UNSPECIFIED', 'UNSPECIFIED', 'UNSPECIFIED', ('UNSPECIFIED'), ('UNSPECIFIED'), ('UNSPECIFIED') ) ;
#141 = EDGE_LOOP ( 'NONE', ( #193, #225, #78 ) ) ;
#142 = CARTESIAN_POINT ( 'NONE',  ( 6.349999999999999600, 1.221245327087670000E-015, -0.8627486389497830400 ) ) ;
#143 = CC_DESIGN_PERSON_AND_ORGANIZATION_ASSIGNMENT ( #59, #88, ( #85 ) ) ;
#144 = CARTESIAN_POINT ( 'NONE',  ( -4.144567513485400300, 6.424304716581961100, -1.165401053783951400 ) ) ;
#145 = DIRECTION ( 'NONE',  ( 1.000000000000000000, 0.0000000000000000000, 0.0000000000000000000 ) ) ;
#146 = APPROVAL_PERSON_ORGANIZATION ( #183, #97, #58 ) ;
#147 = CARTESIAN_POINT ( 'NONE',  ( 4.144567513485398500, -6.424304716581952200, -1.165401053783948500 ) ) ;
#148 = PLANE ( 'NONE',  #15 ) ;
#149 = CARTESIAN_POINT ( 'NONE',  ( 2.081874256861012000, -6.424304716581952200, -0.8834490180458717300 ) ) ;
#150 = APPROVAL_DATE_TIME ( #83, #222 ) ;
#151 =( BOUNDED_SURFACE ( )  B_SPLINE_SURFACE ( 3, 3, ( 
 ( #212, #194, #66, #98 ),
 ( #48, #226, #192, #30 ),
 ( #173, #115, #152, #28 ),
 ( #190, #149, #147, #171 ) ),
 .UNSPECIFIED., .F., .F., .F. ) 
 B_SPLINE_SURFACE_WITH_KNOTS ( ( 4, 4 ),
 ( 4, 4 ),
 ( 0.0000000000000000000, 1.000000000000000000 ),
 ( 0.0000000000000000000, 1.000000000000000000 ),
 .UNSPECIFIED. ) 
 GEOMETRIC_REPRESENTATION_ITEM ( )  RATIONAL_B_SPLINE_SURFACE ( (
 ( 1.000000000000000000, 0.9938577781780347800, 0.9938577781780347800, 1.000000000000000000),
 ( 0.9752535289062782600, 0.9692633053990815700, 0.9692633053990815700, 0.9752535289062782600),
 ( 0.9752535289062782600, 0.9692633053990815700, 0.9692633053990815700, 0.9752535289062782600),
 ( 1.000000000000000000, 0.9938577781780347800, 0.9938577781780347800, 1.000000000000000000) ) ) 
 REPRESENTATION_ITEM ( '' )  SURFACE ( )  );
#152 = CARTESIAN_POINT ( 'NONE',  ( 4.358953542856958100, -2.195772526892448200, 0.005418767272885398900 ) ) ;
#153 = AXIS2_PLACEMENT_3D ( 'NONE', #107, #16, #219 ) ;
#154 = LOCAL_TIME ( 13, 56, 51.00000000000000000, #44 ) ;
#155 = APPROVAL_ROLE ( '' ) ;
#156 = CC_DESIGN_PERSON_AND_ORGANIZATION_ASSIGNMENT ( #191, #11, ( #85 ) ) ;
#157 = ORIENTED_EDGE ( 'NONE', *, *, #216, .T. ) ;
#158 = CARTESIAN_POINT ( 'NONE',  ( -4.358953542856961700, -2.195772526892447300, 0.005418767272879218000 ) ) ;
#159 = FACE_OUTER_BOUND ( 'NONE', #110, .T. ) ;
#160 =( LENGTH_UNIT ( ) NAMED_UNIT ( * ) SI_UNIT ( .MILLI., .METRE. ) );
#161 = APPROVAL_ROLE ( '' ) ;
#162 = ORIENTED_EDGE ( 'NONE', *, *, #127, .T. ) ;
#163 = ORIENTED_EDGE ( 'NONE', *, *, #103, .T. ) ;
#164 = AXIS2_PLACEMENT_3D ( 'NONE', #43, #208, #73 ) ;
#165 = DIRECTION ( 'NONE',  ( 1.000000000000000000, 0.0000000000000000000, 0.0000000000000000000 ) ) ;
#166 = CARTESIAN_POINT ( 'NONE',  ( 2.498001805406600200E-016, 1.221245327087670000E-015, -0.8627486389497830400 ) ) ;
#167 = DIRECTION ( 'NONE',  ( 0.0000000000000000000, 0.0000000000000000000, 1.000000000000000000 ) ) ;
#168 = CARTESIAN_POINT ( 'NONE',  ( 0.0000000000000000000, 0.0000000000000000000, 0.0000000000000000000 ) ) ;
#169 = CARTESIAN_POINT ( 'NONE',  ( 2.498001805406600200E-016, 1.221245327087670000E-015, -0.8627486389497830400 ) ) ;
#170 = ORGANIZATION ( 'UNSPECIFIED', 'UNSPECIFIED', '' ) ;
#171 = CARTESIAN_POINT ( 'NONE',  ( 6.150071211274590300, -6.424304716581952200, -1.724109689420128400 ) ) ;
#172 = LINE ( 'NONE', #109, #80 ) ;
#173 = CARTESIAN_POINT ( 'NONE',  ( 5.329070518200749800E-015, -2.195772526892448600, 0.3019553349840659000 ) ) ;
#174 = ADVANCED_FACE ( 'NONE', ( #136 ), #151, .F. ) ;
#175 = CC_DESIGN_DATE_AND_TIME_ASSIGNMENT ( #180, #184, ( #82 ) ) ;
#176 = EDGE_LOOP ( 'NONE', ( #231, #9, #130 ) ) ;
#177 = FACE_OUTER_BOUND ( 'NONE', #46, .T. ) ;
#178 = ADVANCED_FACE ( 'NONE', ( #159 ), #148, .T. ) ;
#179 = LINE ( 'NONE', #105, #196 ) ;
#180 = DATE_AND_TIME ( #87, #154 ) ;
#181 = CARTESIAN_POINT ( 'NONE',  ( -4.144567513485401200, -6.424304716581951300, -1.165401053783954800 ) ) ;
#182 =( BOUNDED_SURFACE ( )  B_SPLINE_SURFACE ( 3, 3, ( 
 ( #187, #144, #42, #95 ),
 ( #1, #186, #17, #41 ),
 ( #39, #158, #92, #220 ),
 ( #54, #181, #70, #104 ) ),
 .UNSPECIFIED., .F., .F., .F. ) 
 B_SPLINE_SURFACE_WITH_KNOTS ( ( 4, 4 ),
 ( 4, 4 ),
 ( 0.0000000000000000000, 1.000000000000000000 ),
 ( 0.0000000000000000000, 1.000000000000000000 ),
 .UNSPECIFIED. ) 
 GEOMETRIC_REPRESENTATION_ITEM ( )  RATIONAL_B_SPLINE_SURFACE ( (
 ( 1.000000000000000000, 0.9938577781780347800, 0.9938577781780347800, 1.000000000000000000),
 ( 0.9752535289062782600, 0.9692633053990815700, 0.9692633053990815700, 0.9752535289062782600),
 ( 0.9752535289062782600, 0.9692633053990815700, 0.9692633053990815700, 0.9752535289062782600),
 ( 1.000000000000000000, 0.9938577781780347800, 0.9938577781780347800, 1.000000000000000000) ) ) 
 REPRESENTATION_ITEM ( '' )  SURFACE ( )  );
#183 = PERSON_AND_ORGANIZATION ( #140, #170 ) ;
#184 = DATE_TIME_ROLE ( 'classification_date' ) ;
#185 = AXIS2_PLACEMENT_3D ( 'NONE', #206, #74, #165 ) ;
#186 = CARTESIAN_POINT ( 'NONE',  ( -4.358953542856959900, 2.195772526892456200, 0.005418767272881279800 ) ) ;
#187 = CARTESIAN_POINT ( 'NONE',  ( -6.150071211274594800, 6.424304716581961100, -1.724109689420133500 ) ) ;
#188 = PERSON_AND_ORGANIZATION ( #140, #170 ) ;
#189 = DIRECTION ( 'NONE',  ( 0.0000000000000000000, 0.0000000000000000000, 1.000000000000000000 ) ) ;
#190 = CARTESIAN_POINT ( 'NONE',  ( 5.329070518200749800E-015, -6.424304716581952200, -0.8834490180458718400 ) ) ;
#191 = PERSON_AND_ORGANIZATION ( #140, #170 ) ;
#192 = CARTESIAN_POINT ( 'NONE',  ( 4.358953542856958100, 2.195772526892455700, 0.005418767272887785800 ) ) ;
#193 = ORIENTED_EDGE ( 'NONE', *, *, #81, .F. ) ;
#194 = CARTESIAN_POINT ( 'NONE',  ( 2.081874256861012000, 6.424304716581960200, -0.8834490180458682800 ) ) ;
#195 = APPROVAL_STATUS ( 'not_yet_approved' ) ;
#196 = VECTOR ( 'NONE', #60, 1000.000000000000000 ) ;
#197 = ADVANCED_FACE ( 'NONE', ( #13 ), #91, .T. ) ;
#198 = LOCAL_TIME ( 13, 56, 51.00000000000000000, #7 ) ;
#199 = ORIENTED_EDGE ( 'NONE', *, *, #205, .T. ) ;
#200 = DIRECTION ( 'NONE',  ( 0.0000000000000000000, 0.0000000000000000000, 1.000000000000000000 ) ) ;
#201 = CIRCLE ( 'NONE', #185, 6.349999999999999600 ) ;
#202 = CC_DESIGN_APPROVAL ( #100, ( #82 ) ) ;
#203 = CARTESIAN_POINT ( 'NONE',  ( 6.349999999999999600, 1.221245327087670000E-015, 2.200000000000000600 ) ) ;
#204 = CLOSED_SHELL ( 'NONE', ( #228, #197, #174, #135, #178 ) ) ;
#205 = EDGE_CURVE ( 'NONE', #18, #101, #76, .T. ) ;
#206 = CARTESIAN_POINT ( 'NONE',  ( 2.498001805406600200E-016, 1.221245327087670000E-015, 2.200000000000000600 ) ) ;
#207 = SHAPE_DEFINITION_REPRESENTATION ( #37, #86 ) ;
#208 = DIRECTION ( 'NONE',  ( 1.000000000000000000, 0.0000000000000000000, 0.0000000000000000000 ) ) ;
#209 = DIRECTION ( 'NONE',  ( 1.000000000000000000, 0.0000000000000000000, 0.0000000000000000000 ) ) ;
#210 = DIRECTION ( 'NONE',  ( 1.000000000000000000, 0.0000000000000000000, 0.0000000000000000000 ) ) ;
#211 = APPLICATION_CONTEXT ( 'configuration controlled 3d designs of mechanical parts and assemblies' ) ;
#212 = CARTESIAN_POINT ( 'NONE',  ( 5.329070518200749800E-015, 6.424304716581960200, -0.8834490180458682800 ) ) ;
#213 = CC_DESIGN_APPROVAL ( #222, ( #118 ) ) ;
#214 = ORIENTED_EDGE ( 'NONE', *, *, #94, .T. ) ;
#215 = PRODUCT ( '112-1109E UVFS pl-cv 12.7 F-50', '112-1109E UVFS pl-cv 12.7 F-50', '', ( #36 ) ) ;
#216 = EDGE_CURVE ( 'NONE', #27, #5, #201, .T. ) ;
#217 = APPLICATION_CONTEXT ( 'configuration controlled 3d designs of mechanical parts and assemblies' ) ;
#218 = LOCAL_TIME ( 13, 56, 51.00000000000000000, #31 ) ;
#219 = DIRECTION ( 'NONE',  ( 1.000000000000000000, 0.0000000000000000000, 0.0000000000000000000 ) ) ;
#220 = CARTESIAN_POINT ( 'NONE',  ( -2.602085213965210600E-015, -2.195772526892447300, 0.3019553349840618000 ) ) ;
#221 = ORIENTED_EDGE ( 'NONE', *, *, #227, .T. ) ;
#222 = APPROVAL ( #195, 'UNSPECIFIED' ) ;
#223 = PERSON_AND_ORGANIZATION_ROLE ( 'creator' ) ;
#224 = PERSON_AND_ORGANIZATION ( #140, #170 ) ;
#225 = ORIENTED_EDGE ( 'NONE', *, *, #116, .T. ) ;
#226 = CARTESIAN_POINT ( 'NONE',  ( 2.189563359313093200, 2.195772526892455300, 0.3019553349840682900 ) ) ;
#227 = EDGE_CURVE ( 'NONE', #101, #38, #84, .T. ) ;
#228 = ADVANCED_FACE ( 'NONE', ( #50 ), #182, .F. ) ;
#229 = PERSON_AND_ORGANIZATION ( #140, #170 ) ;
#230 =( GEOMETRIC_REPRESENTATION_CONTEXT ( 3 ) GLOBAL_UNCERTAINTY_ASSIGNED_CONTEXT ( ( #126 ) ) GLOBAL_UNIT_ASSIGNED_CONTEXT ( ( #160, #233, #53 ) ) REPRESENTATION_CONTEXT ( 'NONE', 'WORKASPACE' ) );
#231 = ORIENTED_EDGE ( 'NONE', *, *, #116, .F. ) ;
#232 = DATE_AND_TIME ( #235, #51 ) ;
#233 =( NAMED_UNIT ( * ) PLANE_ANGLE_UNIT ( ) SI_UNIT ( $, .RADIAN. ) );
#234 = CARTESIAN_POINT ( 'NONE',  ( -6.349999999999999600, 1.998896044546239400E-015, -0.8627486389497830400 ) ) ;
#235 = CALENDAR_DATE ( 2019, 16, 1 ) ;
ENDSEC;
END-ISO-10303-21;
