ISO-10303-21;
HEADER;
FILE_DESCRIPTION (( 'STEP AP203' ),
    '1' );
FILE_NAME ('112-1105E UVFS pl-cv 12.7 F-25.STEP',
    '2019-01-16T11:26:45',
    ( '' ),
    ( '' ),
    'SwSTEP 2.0',
    'SolidWorks 2017',
    '' );
FILE_SCHEMA (( 'CONFIG_CONTROL_DESIGN' ));
ENDSEC;

DATA;
#1 = APPROVAL ( #197, 'UNSPECIFIED' ) ;
#2 = DIRECTION ( 'NONE',  ( -0.0000000000000000000, -0.0000000000000000000, -1.000000000000000000 ) ) ;
#3 = VERTEX_POINT ( 'NONE', #131 ) ;
#4 = CC_DESIGN_DATE_AND_TIME_ASSIGNMENT ( #80, #72, ( #201 ) ) ;
#5 = CC_DESIGN_APPROVAL ( #1, ( #201 ) ) ;
#6 = ORIENTED_EDGE ( 'NONE', *, *, #220, .F. ) ;
#7 = COORDINATED_UNIVERSAL_TIME_OFFSET ( 2, 0, .AHEAD. ) ;
#8 = CARTESIAN_POINT ( 'NONE',  ( 6.759479824820190600, 2.390957562834720800, -1.266587250572915000 ) ) ;
#9 = PRODUCT_DEFINITION ( 'UNKNOWN', '', #94, #125 ) ;
#10 = PLANE ( 'NONE',  #106 ) ;
#11 = CARTESIAN_POINT ( 'NONE',  ( -3.758016021491544600, -6.417832148303634000, -2.414522046102189500 ) ) ;
#12 = DIRECTION ( 'NONE',  ( 0.0000000000000000000, 0.0000000000000000000, 1.000000000000000000 ) ) ;
#13 = EDGE_CURVE ( 'NONE', #211, #189, #233, .T. ) ;
#14 = APPROVAL_STATUS ( 'not_yet_approved' ) ;
#15 = DATE_AND_TIME ( #168, #64 ) ;
#16 = APPLICATION_CONTEXT ( 'configuration controlled 3d designs of mechanical parts and assemblies' ) ;
#17 = AXIS2_PLACEMENT_3D ( 'NONE', #132, #2, #36 ) ;
#18 = CALENDAR_DATE ( 2019, 16, 1 ) ;
#19 = ORIENTED_EDGE ( 'NONE', *, *, #13, .F. ) ;
#20 = APPROVAL_DATE_TIME ( #15, #129 ) ;
#21 = CARTESIAN_POINT ( 'NONE',  ( 2.410562056519612600, -2.390957562834717300, 0.7000013572153861400 ) ) ;
#22 = CARTESIAN_POINT ( 'NONE',  ( 3.758016021491544100, 6.417832148303638500, -2.414522046102184100 ) ) ;
#23 = ADVANCED_FACE ( 'NONE', ( #66 ), #154, .F. ) ;
#24 = CARTESIAN_POINT ( 'NONE',  ( 2.664535259100380000E-015, 6.349999999999999600, -1.835830883773860600 ) ) ;
#25 = DIRECTION ( 'NONE',  ( 0.0000000000000000000, 1.000000000000000000, 2.915501640297154800E-016 ) ) ;
#26 = CALENDAR_DATE ( 2019, 16, 1 ) ;
#27 = DIRECTION ( 'NONE',  ( 0.0000000000000000000, 0.0000000000000000000, 1.000000000000000000 ) ) ;
#28 = CARTESIAN_POINT ( 'NONE',  ( -6.759479824820194200, 2.390957562834719900, -1.266587250572920800 ) ) ;
#29 = CARTESIAN_POINT ( 'NONE',  ( 2.498001805406600200E-016, 1.221245327087670000E-015, -1.835830883773859900 ) ) ;
#30 = APPROVAL_ROLE ( '' ) ;
#31 = EDGE_LOOP ( 'NONE', ( #74, #186, #57, #161, #191 ) ) ;
#32 = MECHANICAL_CONTEXT ( 'NONE', #16, 'mechanical' ) ;
#33 = ORIENTED_EDGE ( 'NONE', *, *, #120, .T. ) ;
#34 = EDGE_CURVE ( 'NONE', #3, #42, #149, .T. ) ;
#35 = FACE_OUTER_BOUND ( 'NONE', #31, .T. ) ;
#36 = DIRECTION ( 'NONE',  ( 1.000000000000000000, 0.0000000000000000000, 0.0000000000000000000 ) ) ;
#37 = CARTESIAN_POINT ( 'NONE',  ( 2.664535259100380000E-015, -6.417832148303633100, -1.878950627993078500 ) ) ;
#38 = AXIS2_PLACEMENT_3D ( 'NONE', #206, #192, #190 ) ;
#39 = CYLINDRICAL_SURFACE ( 'NONE', #75, 6.349999999999999600 ) ;
#40 = DIRECTION ( 'NONE',  ( 1.000000000000000000, 0.0000000000000000000, 0.0000000000000000000 ) ) ;
#41 = DIRECTION ( 'NONE',  ( -0.0000000000000000000, -0.0000000000000000000, -1.000000000000000000 ) ) ;
#42 = VERTEX_POINT ( 'NONE', #24 ) ;
#43 = DIRECTION ( 'NONE',  ( 1.000000000000000000, 0.0000000000000000000, 0.0000000000000000000 ) ) ;
#44 = CARTESIAN_POINT ( 'NONE',  ( 0.0000000000000000000, 0.0000000000000000000, 0.0000000000000000000 ) ) ;
#45 = CARTESIAN_POINT ( 'NONE',  ( 2.664535259100380000E-015, 3.552713678800500100E-015, -11.90000000000000000 ) ) ;
#46 = AXIS2_PLACEMENT_3D ( 'NONE', #172, #41, #173 ) ;
#47 = ORIENTED_EDGE ( 'NONE', *, *, #124, .F. ) ;
#48 = DIRECTION ( 'NONE',  ( 0.0000000000000000000, 0.0000000000000000000, 1.000000000000000000 ) ) ;
#49 = APPROVAL_STATUS ( 'not_yet_approved' ) ;
#50 = ORIENTED_EDGE ( 'NONE', *, *, #220, .T. ) ;
#51 = PERSON_AND_ORGANIZATION_ROLE ( 'design_supplier' ) ;
#52 = EDGE_CURVE ( 'NONE', #189, #211, #187, .T. ) ;
#53 = APPROVAL_ROLE ( '' ) ;
#54 = CALENDAR_DATE ( 2019, 16, 1 ) ;
#55 = CARTESIAN_POINT ( 'NONE',  ( 1.917171331798028100, 6.417832148303637600, -1.878950627993075200 ) ) ;
#56 = DATE_AND_TIME ( #26, #101 ) ;
#57 = ORIENTED_EDGE ( 'NONE', *, *, #124, .T. ) ;
#58 = AXIS2_PLACEMENT_3D ( 'NONE', #45, #43, #25 ) ;
#59 =( BOUNDED_SURFACE ( )  B_SPLINE_SURFACE ( 3, 3, ( 
 ( #82, #99, #156, #67 ),
 ( #28, #62, #175, #231 ),
 ( #210, #162, #116, #114 ),
 ( #229, #11, #68, #163 ) ),
 .UNSPECIFIED., .F., .F., .T. ) 
 B_SPLINE_SURFACE_WITH_KNOTS ( ( 4, 4 ),
 ( 4, 4 ),
 ( 0.0000000000000000000, 1.000000000000000000 ),
 ( 0.0000000000000000000, 1.000000000000000000 ),
 .UNSPECIFIED. ) 
 GEOMETRIC_REPRESENTATION_ITEM ( )  RATIONAL_B_SPLINE_SURFACE ( (
 ( 1.000000000000000000, 0.9734585911933327800, 0.9734585911933327800, 1.000000000000000000),
 ( 0.8947366594961861900, 0.8709890880421861100, 0.8709890880421861100, 0.8947366594961861900),
 ( 0.8947366594961861900, 0.8709890880421861100, 0.8709890880421861100, 0.8947366594961861900),
 ( 1.000000000000000000, 0.9734585911933327800, 0.9734585911933327800, 1.000000000000000000) ) ) 
 REPRESENTATION_ITEM ( '' )  SURFACE ( )  );
#60 = ADVANCED_FACE ( 'NONE', ( #93 ), #39, .T. ) ;
#61 = CARTESIAN_POINT ( 'NONE',  ( 2.664535259100380000E-015, -2.390957562834716800, 0.7000013572153861400 ) ) ;
#62 = CARTESIAN_POINT ( 'NONE',  ( -4.725154543545333000, 2.390957562834719900, 0.02659876787068594900 ) ) ;
#63 = EDGE_CURVE ( 'NONE', #42, #148, #198, .T. ) ;
#64 = LOCAL_TIME ( 13, 26, 45.00000000000000000, #7 ) ;
#65 = CARTESIAN_POINT ( 'NONE',  ( 6.349999999999999600, 1.221245327087670000E-015, -1.835830883773859900 ) ) ;
#66 = FACE_OUTER_BOUND ( 'NONE', #176, .T. ) ;
#67 = CARTESIAN_POINT ( 'NONE',  ( 0.0000000000000000000, 6.417832148303637600, -1.878950627993073900 ) ) ;
#68 = CARTESIAN_POINT ( 'NONE',  ( -1.917171331798028100, -6.417832148303634000, -1.878950627993078100 ) ) ;
#69 = MANIFOLD_SOLID_BREP ( 'Imported1', #171 ) ;
#70 = APPROVAL_ROLE ( '' ) ;
#71 = CC_DESIGN_DATE_AND_TIME_ASSIGNMENT ( #56, #215, ( #9 ) ) ;
#72 = DATE_TIME_ROLE ( 'classification_date' ) ;
#73 = PERSON_AND_ORGANIZATION ( #108, #226 ) ;
#74 = ORIENTED_EDGE ( 'NONE', *, *, #34, .T. ) ;
#75 = AXIS2_PLACEMENT_3D ( 'NONE', #128, #204, #155 ) ;
#76 = PRODUCT ( '112-1105E UVFS pl-cv 12.7 F-25', '112-1105E UVFS pl-cv 12.7 F-25', '', ( #32 ) ) ;
#77 = CARTESIAN_POINT ( 'NONE',  ( 2.664535259100380000E-015, 2.390957562834719900, 0.7000013572153883600 ) ) ;
#78 = ORIENTED_EDGE ( 'NONE', *, *, #182, .T. ) ;
#79 = CARTESIAN_POINT ( 'NONE',  ( 5.375958234704334000, -6.417832148303632200, -3.443020422460805200 ) ) ;
#80 = DATE_AND_TIME ( #54, #195 ) ;
#81 = LINE ( 'NONE', #65, #219 ) ;
#82 = CARTESIAN_POINT ( 'NONE',  ( -5.375958234704335800, 6.417832148303637600, -3.443020422460805600 ) ) ;
#83 = CC_DESIGN_APPROVAL ( #130, ( #9 ) ) ;
#84 = PERSON_AND_ORGANIZATION ( #108, #226 ) ;
#85 = ORIENTED_EDGE ( 'NONE', *, *, #34, .F. ) ;
#86 = DIRECTION ( 'NONE',  ( 0.0000000000000000000, 0.0000000000000000000, 1.000000000000000000 ) ) ;
#87 = CARTESIAN_POINT ( 'NONE',  ( -6.349999999999999600, 1.998896044546239400E-015, 1.300000000000000300 ) ) ;
#88 =( GEOMETRIC_REPRESENTATION_CONTEXT ( 3 ) GLOBAL_UNCERTAINTY_ASSIGNED_CONTEXT ( ( #167 ) ) GLOBAL_UNIT_ASSIGNED_CONTEXT ( ( #143, #179, #196 ) ) REPRESENTATION_CONTEXT ( 'NONE', 'WORKASPACE' ) );
#89 = SHAPE_DEFINITION_REPRESENTATION ( #164, #235 ) ;
#90 = EDGE_LOOP ( 'NONE', ( #19, #218 ) ) ;
#91 = AXIS2_PLACEMENT_3D ( 'NONE', #137, #27, #158 ) ;
#92 = PERSON_AND_ORGANIZATION_ROLE ( 'design_owner' ) ;
#93 = FACE_OUTER_BOUND ( 'NONE', #153, .T. ) ;
#94 = PRODUCT_DEFINITION_FORMATION_WITH_SPECIFIED_SOURCE ( 'ANY', '', #76, .NOT_KNOWN. ) ;
#95 = ORIENTED_EDGE ( 'NONE', *, *, #113, .F. ) ;
#96 = DIRECTION ( 'NONE',  ( 0.0000000000000000000, 0.0000000000000000000, 1.000000000000000000 ) ) ;
#97 = CARTESIAN_POINT ( 'NONE',  ( 3.758016021491544100, -6.417832148303630500, -2.414522046102187200 ) ) ;
#98 = CC_DESIGN_SECURITY_CLASSIFICATION ( #201, ( #94 ) ) ;
#99 = CARTESIAN_POINT ( 'NONE',  ( -3.758016021491544600, 6.417832148303636700, -2.414522046102185900 ) ) ;
#100 = ADVANCED_FACE ( 'NONE', ( #142 ), #59, .F. ) ;
#101 = LOCAL_TIME ( 13, 26, 45.00000000000000000, #109 ) ;
#102 = DIRECTION ( 'NONE',  ( 0.0000000000000000000, 0.0000000000000000000, 1.000000000000000000 ) ) ;
#103 = VERTEX_POINT ( 'NONE', #208 ) ;
#104 = PERSON_AND_ORGANIZATION_ROLE ( 'creator' ) ;
#105 = CIRCLE ( 'NONE', #205, 6.349999999999999600 ) ;
#106 = AXIS2_PLACEMENT_3D ( 'NONE', #118, #86, #160 ) ;
#107 = APPROVAL_PERSON_ORGANIZATION ( #170, #129, #70 ) ;
#108 = PERSON ( 'UNSPECIFIED', 'UNSPECIFIED', 'UNSPECIFIED', ('UNSPECIFIED'), ('UNSPECIFIED'), ('UNSPECIFIED') ) ;
#109 = COORDINATED_UNIVERSAL_TIME_OFFSET ( 2, 0, .AHEAD. ) ;
#110 = ADVANCED_FACE ( 'NONE', ( #35 ), #136, .T. ) ;
#111 = CARTESIAN_POINT ( 'NONE',  ( 1.917171331798028100, -6.417832148303631400, -1.878950627993078300 ) ) ;
#112 = CARTESIAN_POINT ( 'NONE',  ( 4.725154543545332200, -2.390957562834717300, 0.02659876787068595300 ) ) ;
#113 = EDGE_CURVE ( 'NONE', #103, #3, #183, .T. ) ;
#114 = CARTESIAN_POINT ( 'NONE',  ( -8.673617379884035500E-016, -2.390957562834717700, 0.7000013572153865900 ) ) ;
#115 = CALENDAR_DATE ( 2019, 16, 1 ) ;
#116 = CARTESIAN_POINT ( 'NONE',  ( -2.410562056519614000, -2.390957562834718200, 0.7000013572153860300 ) ) ;
#117 = ORIENTED_EDGE ( 'NONE', *, *, #13, .T. ) ;
#118 = CARTESIAN_POINT ( 'NONE',  ( 0.0000000000000000000, 13.15799999999999900, 1.300000000000000300 ) ) ;
#119 = DIRECTION ( 'NONE',  ( 0.0000000000000000000, 0.0000000000000000000, 1.000000000000000000 ) ) ;
#120 = EDGE_CURVE ( 'NONE', #42, #103, #225, .T. ) ;
#121 = DIRECTION ( 'NONE',  ( 1.000000000000000000, 0.0000000000000000000, 0.0000000000000000000 ) ) ;
#122 = VECTOR ( 'NONE', #209, 1000.000000000000000 ) ;
#123 = APPLICATION_PROTOCOL_DEFINITION ( 'international standard', 'config_control_design', 1994, #181 ) ;
#124 = EDGE_CURVE ( 'NONE', #148, #189, #178, .T. ) ;
#125 = DESIGN_CONTEXT ( 'detailed design', #181, 'design' ) ;
#126 = DATE_AND_TIME ( #115, #135 ) ;
#127 = FACE_OUTER_BOUND ( 'NONE', #90, .T. ) ;
#128 = CARTESIAN_POINT ( 'NONE',  ( 2.498001805406600200E-016, 1.221245327087670000E-015, -1.835830883773859900 ) ) ;
#129 = APPROVAL ( #49, 'UNSPECIFIED' ) ;
#130 = APPROVAL ( #14, 'UNSPECIFIED' ) ;
#131 = CARTESIAN_POINT ( 'NONE',  ( 6.349999999999999600, 1.221245327087670000E-015, -1.835830883773859900 ) ) ;
#132 = CARTESIAN_POINT ( 'NONE',  ( 2.498001805406600200E-016, 1.221245327087670000E-015, 1.300000000000000300 ) ) ;
#133 = ADVANCED_FACE ( 'NONE', ( #127 ), #10, .T. ) ;
#134 = CARTESIAN_POINT ( 'NONE',  ( 2.498001805406600200E-016, 1.221245327087670000E-015, -1.835830883773859900 ) ) ;
#135 = LOCAL_TIME ( 13, 26, 45.00000000000000000, #199 ) ;
#136 = CYLINDRICAL_SURFACE ( 'NONE', #38, 6.349999999999999600 ) ;
#137 = CARTESIAN_POINT ( 'NONE',  ( 2.498001805406600200E-016, 1.221245327087670000E-015, -1.835830883773859900 ) ) ;
#138 = CC_DESIGN_PERSON_AND_ORGANIZATION_ASSIGNMENT ( #174, #92, ( #76 ) ) ;
#139 = CARTESIAN_POINT ( 'NONE',  ( 6.349999999999999600, 1.221245327087670000E-015, 1.300000000000000300 ) ) ;
#140 = APPROVAL_DATE_TIME ( #126, #1 ) ;
#141 = CARTESIAN_POINT ( 'NONE',  ( 2.498001805406600200E-016, 1.221245327087670000E-015, -1.835830883773859900 ) ) ;
#142 = FACE_OUTER_BOUND ( 'NONE', #222, .T. ) ;
#143 =( LENGTH_UNIT ( ) NAMED_UNIT ( * ) SI_UNIT ( .MILLI., .METRE. ) );
#144 = PERSON_AND_ORGANIZATION_ROLE ( 'creator' ) ;
#145 = SECURITY_CLASSIFICATION_LEVEL ( 'unclassified' ) ;
#146 = PERSON_AND_ORGANIZATION ( #108, #226 ) ;
#147 = CC_DESIGN_APPROVAL ( #129, ( #94 ) ) ;
#148 = VERTEX_POINT ( 'NONE', #230 ) ;
#149 = CIRCLE ( 'NONE', #157, 6.349999999999999600 ) ;
#150 = DATE_AND_TIME ( #18, #214 ) ;
#151 = CARTESIAN_POINT ( 'NONE',  ( 6.759479824820188800, -2.390957562834716800, -1.266587250572917200 ) ) ;
#152 = CC_DESIGN_PERSON_AND_ORGANIZATION_ASSIGNMENT ( #73, #144, ( #9 ) ) ;
#153 = EDGE_LOOP ( 'NONE', ( #47, #50, #166, #78, #117 ) ) ;
#154 =( BOUNDED_SURFACE ( )  B_SPLINE_SURFACE ( 3, 3, ( 
 ( #188, #55, #22, #184 ),
 ( #77, #200, #221, #8 ),
 ( #61, #21, #112, #151 ),
 ( #37, #111, #97, #79 ) ),
 .UNSPECIFIED., .F., .F., .T. ) 
 B_SPLINE_SURFACE_WITH_KNOTS ( ( 4, 4 ),
 ( 4, 4 ),
 ( 0.0000000000000000000, 1.000000000000000000 ),
 ( 0.0000000000000000000, 1.000000000000000000 ),
 .UNSPECIFIED. ) 
 GEOMETRIC_REPRESENTATION_ITEM ( )  RATIONAL_B_SPLINE_SURFACE ( (
 ( 1.000000000000000000, 0.9734585911933328900, 0.9734585911933328900, 1.000000000000000000),
 ( 0.8947366594961861900, 0.8709890880421862200, 0.8709890880421862200, 0.8947366594961861900),
 ( 0.8947366594961861900, 0.8709890880421862200, 0.8709890880421862200, 0.8947366594961861900),
 ( 1.000000000000000000, 0.9734585911933328900, 0.9734585911933328900, 1.000000000000000000) ) ) 
 REPRESENTATION_ITEM ( '' )  SURFACE ( )  );
#155 = DIRECTION ( 'NONE',  ( 1.000000000000000000, 0.0000000000000000000, 0.0000000000000000000 ) ) ;
#156 = CARTESIAN_POINT ( 'NONE',  ( -1.917171331798028300, 6.417832148303636700, -1.878950627993074800 ) ) ;
#157 = AXIS2_PLACEMENT_3D ( 'NONE', #134, #96, #40 ) ;
#158 = DIRECTION ( 'NONE',  ( 1.000000000000000000, 0.0000000000000000000, 0.0000000000000000000 ) ) ;
#159 = APPROVAL_PERSON_ORGANIZATION ( #84, #130, #30 ) ;
#160 = DIRECTION ( 'NONE',  ( 1.000000000000000000, 0.0000000000000000000, -0.0000000000000000000 ) ) ;
#161 = ORIENTED_EDGE ( 'NONE', *, *, #52, .T. ) ;
#162 = CARTESIAN_POINT ( 'NONE',  ( -4.725154543545333000, -2.390957562834717700, 0.02659876787068398900 ) ) ;
#163 = CARTESIAN_POINT ( 'NONE',  ( 0.0000000000000000000, -6.417832148303633100, -1.878950627993077900 ) ) ;
#164 = PRODUCT_DEFINITION_SHAPE ( 'NONE', 'NONE',  #9 ) ;
#165 = APPROVAL_DATE_TIME ( #150, #130 ) ;
#166 = ORIENTED_EDGE ( 'NONE', *, *, #113, .T. ) ;
#167 = UNCERTAINTY_MEASURE_WITH_UNIT (LENGTH_MEASURE( 1.000000000000000100E-005 ), #143, 'distance_accuracy_value', 'NONE');
#168 = CALENDAR_DATE ( 2019, 16, 1 ) ;
#169 = CC_DESIGN_PERSON_AND_ORGANIZATION_ASSIGNMENT ( #146, #104, ( #94 ) ) ;
#170 = PERSON_AND_ORGANIZATION ( #108, #226 ) ;
#171 = CLOSED_SHELL ( 'NONE', ( #100, #110, #23, #60, #133 ) ) ;
#172 = CARTESIAN_POINT ( 'NONE',  ( 2.498001805406600200E-016, 1.221245327087670000E-015, 1.300000000000000300 ) ) ;
#173 = DIRECTION ( 'NONE',  ( 1.000000000000000000, 0.0000000000000000000, 0.0000000000000000000 ) ) ;
#174 = PERSON_AND_ORGANIZATION ( #108, #226 ) ;
#175 = CARTESIAN_POINT ( 'NONE',  ( -2.410562056519614000, 2.390957562834719100, 0.7000013572153878100 ) ) ;
#176 = EDGE_LOOP ( 'NONE', ( #203, #85, #95 ) ) ;
#177 = DIRECTION ( 'NONE',  ( 1.000000000000000000, 0.0000000000000000000, 0.0000000000000000000 ) ) ;
#178 = LINE ( 'NONE', #212, #122 ) ;
#179 =( NAMED_UNIT ( * ) PLANE_ANGLE_UNIT ( ) SI_UNIT ( $, .RADIAN. ) );
#180 = CC_DESIGN_PERSON_AND_ORGANIZATION_ASSIGNMENT ( #202, #51, ( #94 ) ) ;
#181 = APPLICATION_CONTEXT ( 'configuration controlled 3d designs of mechanical parts and assemblies' ) ;
#182 = EDGE_CURVE ( 'NONE', #3, #211, #81, .T. ) ;
#183 = CIRCLE ( 'NONE', #91, 6.349999999999999600 ) ;
#184 = CARTESIAN_POINT ( 'NONE',  ( 5.375958234704334000, 6.417832148303638500, -3.443020422460801200 ) ) ;
#185 = COORDINATED_UNIVERSAL_TIME_OFFSET ( 2, 0, .AHEAD. ) ;
#186 = ORIENTED_EDGE ( 'NONE', *, *, #63, .T. ) ;
#187 = CIRCLE ( 'NONE', #46, 6.349999999999999600 ) ;
#188 = CARTESIAN_POINT ( 'NONE',  ( 2.664535259100380000E-015, 6.417832148303637600, -1.878950627993075000 ) ) ;
#189 = VERTEX_POINT ( 'NONE', #87 ) ;
#190 = DIRECTION ( 'NONE',  ( 1.000000000000000000, 0.0000000000000000000, 0.0000000000000000000 ) ) ;
#191 = ORIENTED_EDGE ( 'NONE', *, *, #182, .F. ) ;
#192 = DIRECTION ( 'NONE',  ( 0.0000000000000000000, 0.0000000000000000000, 1.000000000000000000 ) ) ;
#193 = AXIS2_PLACEMENT_3D ( 'NONE', #141, #102, #227 ) ;
#194 = APPLICATION_PROTOCOL_DEFINITION ( 'international standard', 'config_control_design', 1994, #16 ) ;
#195 = LOCAL_TIME ( 13, 26, 45.00000000000000000, #185 ) ;
#196 =( NAMED_UNIT ( * ) SI_UNIT ( $, .STERADIAN. ) SOLID_ANGLE_UNIT ( ) );
#197 = APPROVAL_STATUS ( 'not_yet_approved' ) ;
#198 = CIRCLE ( 'NONE', #193, 6.349999999999999600 ) ;
#199 = COORDINATED_UNIVERSAL_TIME_OFFSET ( 2, 0, .AHEAD. ) ;
#200 = CARTESIAN_POINT ( 'NONE',  ( 2.410562056519612600, 2.390957562834720800, 0.7000013572153883600 ) ) ;
#201 = SECURITY_CLASSIFICATION ( '', '', #145 ) ;
#202 = PERSON_AND_ORGANIZATION ( #108, #226 ) ;
#203 = ORIENTED_EDGE ( 'NONE', *, *, #120, .F. ) ;
#204 = DIRECTION ( 'NONE',  ( 0.0000000000000000000, 0.0000000000000000000, 1.000000000000000000 ) ) ;
#205 = AXIS2_PLACEMENT_3D ( 'NONE', #29, #48, #177 ) ;
#206 = CARTESIAN_POINT ( 'NONE',  ( 2.498001805406600200E-016, 1.221245327087670000E-015, -1.835830883773859900 ) ) ;
#207 = APPROVAL_PERSON_ORGANIZATION ( #224, #1, #53 ) ;
#208 = CARTESIAN_POINT ( 'NONE',  ( 2.664535259100380000E-015, -6.349999999999995200, -1.835830883773859700 ) ) ;
#209 = DIRECTION ( 'NONE',  ( 0.0000000000000000000, 0.0000000000000000000, 1.000000000000000000 ) ) ;
#210 = CARTESIAN_POINT ( 'NONE',  ( -6.759479824820193300, -2.390957562834716800, -1.266587250572922100 ) ) ;
#211 = VERTEX_POINT ( 'NONE', #139 ) ;
#212 = CARTESIAN_POINT ( 'NONE',  ( -6.349999999999999600, 1.998896044546239400E-015, -1.835830883773859900 ) ) ;
#213 = PRODUCT_RELATED_PRODUCT_CATEGORY ( 'detail', '', ( #76 ) ) ;
#214 = LOCAL_TIME ( 13, 26, 45.00000000000000000, #217 ) ;
#215 = DATE_TIME_ROLE ( 'creation_date' ) ;
#216 = PERSON_AND_ORGANIZATION_ROLE ( 'classification_officer' ) ;
#217 = COORDINATED_UNIVERSAL_TIME_OFFSET ( 2, 0, .AHEAD. ) ;
#218 = ORIENTED_EDGE ( 'NONE', *, *, #52, .F. ) ;
#219 = VECTOR ( 'NONE', #12, 1000.000000000000000 ) ;
#220 = EDGE_CURVE ( 'NONE', #148, #103, #105, .T. ) ;
#221 = CARTESIAN_POINT ( 'NONE',  ( 4.725154543545332200, 2.390957562834720800, 0.02659876787068789600 ) ) ;
#222 = EDGE_LOOP ( 'NONE', ( #234, #33, #6 ) ) ;
#223 = AXIS2_PLACEMENT_3D ( 'NONE', #44, #119, #121 ) ;
#224 = PERSON_AND_ORGANIZATION ( #108, #226 ) ;
#225 = CIRCLE ( 'NONE', #58, 11.90000000000000000 ) ;
#226 = ORGANIZATION ( 'UNSPECIFIED', 'UNSPECIFIED', '' ) ;
#227 = DIRECTION ( 'NONE',  ( 1.000000000000000000, 0.0000000000000000000, 0.0000000000000000000 ) ) ;
#228 = CC_DESIGN_PERSON_AND_ORGANIZATION_ASSIGNMENT ( #232, #216, ( #201 ) ) ;
#229 = CARTESIAN_POINT ( 'NONE',  ( -5.375958234704335800, -6.417832148303633100, -3.443020422460809200 ) ) ;
#230 = CARTESIAN_POINT ( 'NONE',  ( -6.349999999999999600, 1.998896044546239400E-015, -1.835830883773859900 ) ) ;
#231 = CARTESIAN_POINT ( 'NONE',  ( -8.673617379884035500E-016, 2.390957562834719900, 0.7000013572153885900 ) ) ;
#232 = PERSON_AND_ORGANIZATION ( #108, #226 ) ;
#233 = CIRCLE ( 'NONE', #17, 6.349999999999999600 ) ;
#234 = ORIENTED_EDGE ( 'NONE', *, *, #63, .F. ) ;
#235 = ADVANCED_BREP_SHAPE_REPRESENTATION ( '112-1105E UVFS pl-cv 12.7 F-25', ( #69, #223 ), #88 ) ;
ENDSEC;
END-ISO-10303-21;
