ISO-10303-21;
HEADER;
FILE_DESCRIPTION (( 'STEP AP203' ),
    '1' );
FILE_NAME ('112-0511 BK7 pl-cv 50.8 F-250.STEP',
    '2019-01-16T08:05:23',
    ( '' ),
    ( '' ),
    'SwSTEP 2.0',
    'SolidWorks 2017',
    '' );
FILE_SCHEMA (( 'CONFIG_CONTROL_DESIGN' ));
ENDSEC;

DATA;
#1 = LINE ( 'NONE', #156, #146 ) ;
#2 = COORDINATED_UNIVERSAL_TIME_OFFSET ( 2, 0, .AHEAD. ) ;
#3 = FACE_OUTER_BOUND ( 'NONE', #57, .T. ) ;
#4 = CARTESIAN_POINT ( 'NONE',  ( -8.644465534319966300, 8.681692205876903000, 0.8687762777638299300 ) ) ;
#5 = DIRECTION ( 'NONE',  ( 0.0000000000000000000, 0.0000000000000000000, 1.000000000000000000 ) ) ;
#6 = CARTESIAN_POINT ( 'NONE',  ( 25.04375399361376300, 25.70077098688818000, -5.063044177953059100 ) ) ;
#7 = CARTESIAN_POINT ( 'NONE',  ( 8.644465534320064000, 8.681692205876897700, 0.8687762777638455800 ) ) ;
#8 = CARTESIAN_POINT ( 'NONE',  ( -25.39999999999999900, 7.995584178184967200E-015, -2.511439193613009800 ) ) ;
#9 = CARTESIAN_POINT ( 'NONE',  ( 9.992007221626412800E-016, 4.884981308350691100E-015, -2.511439193613009800 ) ) ;
#10 = LOCAL_TIME ( 10, 5, 23.00000000000000000, #39 ) ;
#11 = CARTESIAN_POINT ( 'NONE',  ( 6.194631177484345800E-014, -25.39999999999997700, -2.511439193613014300 ) ) ;
#12 = AXIS2_PLACEMENT_3D ( 'NONE', #127, #198, #141 ) ;
#13 = ORGANIZATION ( 'UNSPECIFIED', 'UNSPECIFIED', '' ) ;
#14 = DIRECTION ( 'NONE',  ( 1.000000000000000000, 0.0000000000000000000, 0.0000000000000000000 ) ) ;
#15 = UNCERTAINTY_MEASURE_WITH_UNIT (LENGTH_MEASURE( 1.000000000000000100E-005 ), #132, 'distance_accuracy_value', 'NONE');
#16 = PERSON_AND_ORGANIZATION_ROLE ( 'design_owner' ) ;
#17 = ORIENTED_EDGE ( 'NONE', *, *, #108, .T. ) ;
#18 = EDGE_CURVE ( 'NONE', #135, #165, #194, .T. ) ;
#19 = APPROVAL_PERSON_ORGANIZATION ( #220, #114, #112 ) ;
#20 = ORIENTED_EDGE ( 'NONE', *, *, #99, .T. ) ;
#21 = ORIENTED_EDGE ( 'NONE', *, *, #18, .F. ) ;
#22 = DIRECTION ( 'NONE',  ( -0.0000000000000000000, -0.0000000000000000000, -1.000000000000000000 ) ) ;
#23 =( BOUNDED_SURFACE ( )  B_SPLINE_SURFACE ( 3, 3, ( 
 ( #104, #151, #224, #41 ),
 ( #118, #223, #4, #190 ),
 ( #24, #154, #63, #44 ),
 ( #102, #64, #80, #40 ) ),
 .UNSPECIFIED., .F., .F., .F. ) 
 B_SPLINE_SURFACE_WITH_KNOTS ( ( 4, 4 ),
 ( 4, 4 ),
 ( 0.0000000000000000000, 1.000000000000000000 ),
 ( 0.0000000000000000000, 1.000000000000000000 ),
 .UNSPECIFIED. ) 
 GEOMETRIC_REPRESENTATION_ITEM ( )  RATIONAL_B_SPLINE_SURFACE ( (
 ( 1.000000000000000000, 0.9967260036734311200, 0.9967260036734311200, 1.000000000000000000),
 ( 0.9867803947825818400, 0.9835496793949334300, 0.9835496793949334300, 0.9867803947825818400),
 ( 0.9867803947825818400, 0.9835496793949334300, 0.9835496793949334300, 0.9867803947825818400),
 ( 1.000000000000000000, 0.9967260036734311200, 0.9967260036734311200, 1.000000000000000000) ) ) 
 REPRESENTATION_ITEM ( '' )  SURFACE ( )  );
#24 = CARTESIAN_POINT ( 'NONE',  ( -25.72154896206411200, -8.681692205876876400, -1.689815804894329300 ) ) ;
#25 = CALENDAR_DATE ( 2019, 16, 1 ) ;
#26 = EDGE_LOOP ( 'NONE', ( #167, #109 ) ) ;
#27 = DIRECTION ( 'NONE',  ( 0.0000000000000000000, 0.0000000000000000000, 1.000000000000000000 ) ) ;
#28 = PLANE ( 'NONE',  #82 ) ;
#29 = CARTESIAN_POINT ( 'NONE',  ( 25.04375399361375200, -25.70077098688818000, -5.063044177953059100 ) ) ;
#30 = EDGE_CURVE ( 'NONE', #168, #209, #235, .T. ) ;
#31 = LOCAL_TIME ( 10, 5, 23.00000000000000000, #160 ) ;
#32 =( BOUNDED_SURFACE ( )  B_SPLINE_SURFACE ( 3, 3, ( 
 ( #191, #71, #123, #6 ),
 ( #46, #7, #140, #138 ),
 ( #87, #199, #88, #214 ),
 ( #90, #197, #217, #29 ) ),
 .UNSPECIFIED., .F., .F., .T. ) 
 B_SPLINE_SURFACE_WITH_KNOTS ( ( 4, 4 ),
 ( 4, 4 ),
 ( 0.0000000000000000000, 1.000000000000000000 ),
 ( 0.0000000000000000000, 1.000000000000000000 ),
 .UNSPECIFIED. ) 
 GEOMETRIC_REPRESENTATION_ITEM ( )  RATIONAL_B_SPLINE_SURFACE ( (
 ( 1.000000000000000000, 0.9967260036734311200, 0.9967260036734311200, 1.000000000000000000),
 ( 0.9867803947825818400, 0.9835496793949334300, 0.9835496793949334300, 0.9867803947825818400),
 ( 0.9867803947825818400, 0.9835496793949334300, 0.9835496793949334300, 0.9867803947825818400),
 ( 1.000000000000000000, 0.9967260036734311200, 0.9967260036734311200, 1.000000000000000000) ) ) 
 REPRESENTATION_ITEM ( '' )  SURFACE ( )  );
#33 = APPROVAL_ROLE ( '' ) ;
#34 = EDGE_CURVE ( 'NONE', #216, #135, #189, .T. ) ;
#35 = PRODUCT_DEFINITION_SHAPE ( 'NONE', 'NONE',  #92 ) ;
#36 = PERSON_AND_ORGANIZATION ( #205, #13 ) ;
#37 = LOCAL_TIME ( 10, 5, 23.00000000000000000, #121 ) ;
#38 = CYLINDRICAL_SURFACE ( 'NONE', #149, 25.39999999999999900 ) ;
#39 = COORDINATED_UNIVERSAL_TIME_OFFSET ( 2, 0, .AHEAD. ) ;
#40 = CARTESIAN_POINT ( 'NONE',  ( 2.775557561562891400E-014, -25.70077098688817300, -2.571874195048720500 ) ) ;
#41 = CARTESIAN_POINT ( 'NONE',  ( 4.163336342344337000E-014, 25.70077098688818800, -2.571874195048721400 ) ) ;
#42 = DIRECTION ( 'NONE',  ( 0.0000000000000000000, 0.0000000000000000000, 1.000000000000000000 ) ) ;
#43 = FACE_OUTER_BOUND ( 'NONE', #66, .T. ) ;
#44 = CARTESIAN_POINT ( 'NONE',  ( 3.122502256758252800E-014, -8.681692205876881700, 0.8687762777638312600 ) ) ;
#45 = ADVANCED_FACE ( 'NONE', ( #148 ), #23, .F. ) ;
#46 = CARTESIAN_POINT ( 'NONE',  ( 7.100200494219213300E-014, 8.681692205876899500, 0.8687762777638490300 ) ) ;
#47 = DIRECTION ( 'NONE',  ( 0.0000000000000000000, 0.0000000000000000000, 1.000000000000000000 ) ) ;
#48 = ORIENTED_EDGE ( 'NONE', *, *, #34, .T. ) ;
#49 = DIRECTION ( 'NONE',  ( 0.0000000000000000000, 0.0000000000000000000, 1.000000000000000000 ) ) ;
#50 = APPLICATION_CONTEXT ( 'configuration controlled 3d designs of mechanical parts and assemblies' ) ;
#51 = ORIENTED_EDGE ( 'NONE', *, *, #147, .T. ) ;
#52 = APPROVAL_ROLE ( '' ) ;
#53 = APPROVAL_STATUS ( 'not_yet_approved' ) ;
#54 = APPROVAL_STATUS ( 'not_yet_approved' ) ;
#55 = APPLICATION_CONTEXT ( 'configuration controlled 3d designs of mechanical parts and assemblies' ) ;
#56 = CC_DESIGN_PERSON_AND_ORGANIZATION_ASSIGNMENT ( #193, #129, ( #110 ) ) ;
#57 = EDGE_LOOP ( 'NONE', ( #17, #201, #218, #20, #231 ) ) ;
#58 = CIRCLE ( 'NONE', #142, 25.39999999999999900 ) ;
#59 = AXIS2_PLACEMENT_3D ( 'NONE', #67, #107, #126 ) ;
#60 = CC_DESIGN_APPROVAL ( #210, ( #110 ) ) ;
#61 = PERSON_AND_ORGANIZATION ( #205, #13 ) ;
#62 = SHAPE_DEFINITION_REPRESENTATION ( #35, #204 ) ;
#63 = CARTESIAN_POINT ( 'NONE',  ( -8.644465534319969900, -8.681692205876881700, 0.8687762777638327000 ) ) ;
#64 = CARTESIAN_POINT ( 'NONE',  ( -16.79201188787308800, -25.70077098688816300, -3.404991813372158400 ) ) ;
#65 = CARTESIAN_POINT ( 'NONE',  ( 25.39999999999999900, 4.884981308350691100E-015, 5.000000000000000000 ) ) ;
#66 = EDGE_LOOP ( 'NONE', ( #130, #48, #116, #51, #72 ) ) ;
#67 = CARTESIAN_POINT ( 'NONE',  ( 1.421085471520200100E-014, 1.421085471520200100E-014, -129.6999999999999900 ) ) ;
#68 = CC_DESIGN_SECURITY_CLASSIFICATION ( #110, ( #188 ) ) ;
#69 = DIRECTION ( 'NONE',  ( 0.0000000000000000000, 0.0000000000000000000, 1.000000000000000000 ) ) ;
#70 = APPROVAL_DATE_TIME ( #219, #114 ) ;
#71 = CARTESIAN_POINT ( 'NONE',  ( 8.416673061450461900, 25.70077098688817700, -2.571874195048704500 ) ) ;
#72 = ORIENTED_EDGE ( 'NONE', *, *, #30, .T. ) ;
#73 =( NAMED_UNIT ( * ) SI_UNIT ( $, .STERADIAN. ) SOLID_ANGLE_UNIT ( ) );
#74 = EDGE_CURVE ( 'NONE', #221, #216, #58, .T. ) ;
#75 = ORIENTED_EDGE ( 'NONE', *, *, #74, .F. ) ;
#76 = PERSON_AND_ORGANIZATION_ROLE ( 'creator' ) ;
#77 = PERSON_AND_ORGANIZATION ( #205, #13 ) ;
#78 = CC_DESIGN_PERSON_AND_ORGANIZATION_ASSIGNMENT ( #93, #16, ( #186 ) ) ;
#79 = CLOSED_SHELL ( 'NONE', ( #45, #177, #105, #195, #120 ) ) ;
#80 = CARTESIAN_POINT ( 'NONE',  ( -8.416673061450369500, -25.70077098688816300, -2.571874195048719600 ) ) ;
#81 = COORDINATED_UNIVERSAL_TIME_OFFSET ( 2, 0, .AHEAD. ) ;
#82 = AXIS2_PLACEMENT_3D ( 'NONE', #158, #49, #230 ) ;
#83 = CARTESIAN_POINT ( 'NONE',  ( 9.992007221626412800E-016, 4.884981308350691100E-015, -2.511439193613009800 ) ) ;
#84 = DATE_AND_TIME ( #133, #222 ) ;
#85 = CC_DESIGN_PERSON_AND_ORGANIZATION_ASSIGNMENT ( #36, #76, ( #188 ) ) ;
#86 = DIRECTION ( 'NONE',  ( 0.0000000000000000000, 0.0000000000000000000, 1.000000000000000000 ) ) ;
#87 = CARTESIAN_POINT ( 'NONE',  ( 6.711183358263246500E-014, -8.681692205876883500, 0.8687762777638513600 ) ) ;
#88 = CARTESIAN_POINT ( 'NONE',  ( 17.24647814603327900, -8.681692205876888800, 0.01311080459520165400 ) ) ;
#89 = APPROVAL_PERSON_ORGANIZATION ( #225, #211, #52 ) ;
#90 = CARTESIAN_POINT ( 'NONE',  ( 6.185353965616729100E-014, -25.70077098688817300, -2.571874195048701000 ) ) ;
#91 = DIRECTION ( 'NONE',  ( 1.000000000000000000, 0.0000000000000000000, 0.0000000000000000000 ) ) ;
#92 = PRODUCT_DEFINITION ( 'UNKNOWN', '', #188, #115 ) ;
#93 = PERSON_AND_ORGANIZATION ( #205, #13 ) ;
#94 = VECTOR ( 'NONE', #69, 1000.000000000000000 ) ;
#95 = APPROVAL_STATUS ( 'not_yet_approved' ) ;
#96 = DATE_AND_TIME ( #139, #37 ) ;
#97 = CYLINDRICAL_SURFACE ( 'NONE', #166, 25.39999999999999900 ) ;
#98 = CC_DESIGN_PERSON_AND_ORGANIZATION_ASSIGNMENT ( #61, #232, ( #188 ) ) ;
#99 = EDGE_CURVE ( 'NONE', #209, #168, #143, .T. ) ;
#100 = ORIENTED_EDGE ( 'NONE', *, *, #157, .F. ) ;
#101 = MANIFOLD_SOLID_BREP ( 'Imported1', #79 ) ;
#102 = CARTESIAN_POINT ( 'NONE',  ( -25.04375399361369500, -25.70077098688816600, -5.063044177953071500 ) ) ;
#103 = AXIS2_PLACEMENT_3D ( 'NONE', #215, #47, #175 ) ;
#104 = CARTESIAN_POINT ( 'NONE',  ( -25.04375399361368400, 25.70077098688819500, -5.063044177953071500 ) ) ;
#105 = ADVANCED_FACE ( 'NONE', ( #113 ), #32, .F. ) ;
#106 = DIRECTION ( 'NONE',  ( 1.000000000000000000, 0.0000000000000000000, 0.0000000000000000000 ) ) ;
#107 = DIRECTION ( 'NONE',  ( 1.000000000000000000, -2.240445334451200100E-016, -4.200549787686929800E-016 ) ) ;
#108 = EDGE_CURVE ( 'NONE', #165, #221, #208, .T. ) ;
#109 = ORIENTED_EDGE ( 'NONE', *, *, #99, .F. ) ;
#110 = SECURITY_CLASSIFICATION ( '', '', #162 ) ;
#111 = ORIENTED_EDGE ( 'NONE', *, *, #34, .F. ) ;
#112 = APPROVAL_ROLE ( '' ) ;
#113 = FACE_OUTER_BOUND ( 'NONE', #152, .T. ) ;
#114 = APPROVAL ( #53, 'UNSPECIFIED' ) ;
#115 = DESIGN_CONTEXT ( 'detailed design', #55, 'design' ) ;
#116 = ORIENTED_EDGE ( 'NONE', *, *, #18, .T. ) ;
#117 = AXIS2_PLACEMENT_3D ( 'NONE', #179, #131, #14 ) ;
#118 = CARTESIAN_POINT ( 'NONE',  ( -25.72154896206410500, 8.681692205876906600, -1.689815804894331000 ) ) ;
#119 = CARTESIAN_POINT ( 'NONE',  ( 9.992007221626412800E-016, 4.884981308350691100E-015, -2.511439193613009800 ) ) ;
#120 = ADVANCED_FACE ( 'NONE', ( #150 ), #28, .T. ) ;
#121 = COORDINATED_UNIVERSAL_TIME_OFFSET ( 2, 0, .AHEAD. ) ;
#122 = DIRECTION ( 'NONE',  ( 0.0000000000000000000, 0.0000000000000000000, 1.000000000000000000 ) ) ;
#123 = CARTESIAN_POINT ( 'NONE',  ( 16.79201188787315900, 25.70077098688817700, -3.404991813372145100 ) ) ;
#124 = CARTESIAN_POINT ( 'NONE',  ( 25.39999999999999900, 4.884981308350691100E-015, -2.511439193613009800 ) ) ;
#125 = DATE_AND_TIME ( #174, #182 ) ;
#126 = DIRECTION ( 'NONE',  ( 2.240445334451199600E-016, 1.000000000000000000, 0.0000000000000000000 ) ) ;
#127 = CARTESIAN_POINT ( 'NONE',  ( 9.992007221626412800E-016, 4.884981308350691100E-015, 5.000000000000000000 ) ) ;
#128 = CC_DESIGN_APPROVAL ( #114, ( #92 ) ) ;
#129 = PERSON_AND_ORGANIZATION_ROLE ( 'classification_officer' ) ;
#130 = ORIENTED_EDGE ( 'NONE', *, *, #202, .F. ) ;
#131 = DIRECTION ( 'NONE',  ( 0.0000000000000000000, 0.0000000000000000000, 1.000000000000000000 ) ) ;
#132 =( LENGTH_UNIT ( ) NAMED_UNIT ( * ) SI_UNIT ( .MILLI., .METRE. ) );
#133 = CALENDAR_DATE ( 2019, 16, 1 ) ;
#134 = APPROVAL_DATE_TIME ( #84, #210 ) ;
#135 = VERTEX_POINT ( 'NONE', #11 ) ;
#136 =( GEOMETRIC_REPRESENTATION_CONTEXT ( 3 ) GLOBAL_UNCERTAINTY_ASSIGNED_CONTEXT ( ( #15 ) ) GLOBAL_UNIT_ASSIGNED_CONTEXT ( ( #132, #200, #73 ) ) REPRESENTATION_CONTEXT ( 'NONE', 'WORKASPACE' ) );
#137 = CIRCLE ( 'NONE', #59, 129.6999999999999900 ) ;
#138 = CARTESIAN_POINT ( 'NONE',  ( 25.72154896206418300, 8.681692205876892400, -1.689815804894318800 ) ) ;
#139 = CALENDAR_DATE ( 2019, 16, 1 ) ;
#140 = CARTESIAN_POINT ( 'NONE',  ( 17.24647814603328700, 8.681692205876895900, 0.01311080459519948400 ) ) ;
#141 = DIRECTION ( 'NONE',  ( 1.000000000000000000, 0.0000000000000000000, 0.0000000000000000000 ) ) ;
#142 = AXIS2_PLACEMENT_3D ( 'NONE', #9, #180, #91 ) ;
#143 = CIRCLE ( 'NONE', #12, 25.39999999999999900 ) ;
#144 = CC_DESIGN_DATE_AND_TIME_ASSIGNMENT ( #125, #181, ( #110 ) ) ;
#145 = DATE_TIME_ROLE ( 'creation_date' ) ;
#146 = VECTOR ( 'NONE', #27, 1000.000000000000000 ) ;
#147 = EDGE_CURVE ( 'NONE', #165, #168, #1, .T. ) ;
#148 = FACE_OUTER_BOUND ( 'NONE', #161, .T. ) ;
#149 = AXIS2_PLACEMENT_3D ( 'NONE', #226, #122, #229 ) ;
#150 = FACE_OUTER_BOUND ( 'NONE', #26, .T. ) ;
#151 = CARTESIAN_POINT ( 'NONE',  ( -16.79201188787307000, 25.70077098688818400, -3.404991813372158400 ) ) ;
#152 = EDGE_LOOP ( 'NONE', ( #100, #213, #21 ) ) ;
#153 = PRODUCT_RELATED_PRODUCT_CATEGORY ( 'detail', '', ( #186 ) ) ;
#154 = CARTESIAN_POINT ( 'NONE',  ( -17.24647814603320100, -8.681692205876880000, 0.01311080459518929200 ) ) ;
#155 = CARTESIAN_POINT ( 'NONE',  ( 9.992007221626412800E-016, 4.884981308350691100E-015, -2.511439193613009800 ) ) ;
#156 = CARTESIAN_POINT ( 'NONE',  ( 25.39999999999999900, 4.884981308350691100E-015, -2.511439193613009800 ) ) ;
#157 = EDGE_CURVE ( 'NONE', #221, #135, #137, .T. ) ;
#158 = CARTESIAN_POINT ( 'NONE',  ( 0.0000000000000000000, 52.02000000000000300, 5.000000000000000000 ) ) ;
#159 = CARTESIAN_POINT ( 'NONE',  ( 7.332777407385554200E-014, 25.39999999999999500, -2.511439193613014300 ) ) ;
#160 = COORDINATED_UNIVERSAL_TIME_OFFSET ( 2, 0, .AHEAD. ) ;
#161 = EDGE_LOOP ( 'NONE', ( #75, #183, #111 ) ) ;
#162 = SECURITY_CLASSIFICATION_LEVEL ( 'unclassified' ) ;
#163 = CC_DESIGN_PERSON_AND_ORGANIZATION_ASSIGNMENT ( #228, #184, ( #92 ) ) ;
#164 = MECHANICAL_CONTEXT ( 'NONE', #50, 'mechanical' ) ;
#165 = VERTEX_POINT ( 'NONE', #124 ) ;
#166 = AXIS2_PLACEMENT_3D ( 'NONE', #155, #86, #106 ) ;
#167 = ORIENTED_EDGE ( 'NONE', *, *, #30, .F. ) ;
#168 = VERTEX_POINT ( 'NONE', #65 ) ;
#169 = CARTESIAN_POINT ( 'NONE',  ( 9.992007221626412800E-016, 4.884981308350691100E-015, 5.000000000000000000 ) ) ;
#170 = CALENDAR_DATE ( 2019, 16, 1 ) ;
#171 = DIRECTION ( 'NONE',  ( 1.000000000000000000, 0.0000000000000000000, 0.0000000000000000000 ) ) ;
#172 = CC_DESIGN_DATE_AND_TIME_ASSIGNMENT ( #96, #145, ( #92 ) ) ;
#173 = DIRECTION ( 'NONE',  ( 1.000000000000000000, 0.0000000000000000000, 0.0000000000000000000 ) ) ;
#174 = CALENDAR_DATE ( 2019, 16, 1 ) ;
#175 = DIRECTION ( 'NONE',  ( 1.000000000000000000, 0.0000000000000000000, 0.0000000000000000000 ) ) ;
#176 = CARTESIAN_POINT ( 'NONE',  ( -25.39999999999999900, 7.995584178184967200E-015, -2.511439193613009800 ) ) ;
#177 = ADVANCED_FACE ( 'NONE', ( #3 ), #97, .T. ) ;
#178 = APPROVAL_PERSON_ORGANIZATION ( #77, #210, #33 ) ;
#179 = CARTESIAN_POINT ( 'NONE',  ( 0.0000000000000000000, 0.0000000000000000000, 0.0000000000000000000 ) ) ;
#180 = DIRECTION ( 'NONE',  ( 0.0000000000000000000, 0.0000000000000000000, 1.000000000000000000 ) ) ;
#181 = DATE_TIME_ROLE ( 'classification_date' ) ;
#182 = LOCAL_TIME ( 10, 5, 23.00000000000000000, #81 ) ;
#183 = ORIENTED_EDGE ( 'NONE', *, *, #157, .T. ) ;
#184 = PERSON_AND_ORGANIZATION_ROLE ( 'creator' ) ;
#185 = APPLICATION_PROTOCOL_DEFINITION ( 'international standard', 'config_control_design', 1994, #55 ) ;
#186 = PRODUCT ( '112-0511 BK7 pl-cv 50.8 F-250', '112-0511 BK7 pl-cv 50.8 F-250', '', ( #164 ) ) ;
#187 = AXIS2_PLACEMENT_3D ( 'NONE', #119, #5, #173 ) ;
#188 = PRODUCT_DEFINITION_FORMATION_WITH_SPECIFIED_SOURCE ( 'ANY', '', #186, .NOT_KNOWN. ) ;
#189 = CIRCLE ( 'NONE', #187, 25.39999999999999900 ) ;
#190 = CARTESIAN_POINT ( 'NONE',  ( 3.469446951953614200E-014, 8.681692205876901300, 0.8687762777638288200 ) ) ;
#191 = CARTESIAN_POINT ( 'NONE',  ( 7.336977414604177900E-014, 25.70077098688818800, -2.571874195048701000 ) ) ;
#192 = AXIS2_PLACEMENT_3D ( 'NONE', #169, #22, #212 ) ;
#193 = PERSON_AND_ORGANIZATION ( #205, #13 ) ;
#194 = CIRCLE ( 'NONE', #206, 25.39999999999999900 ) ;
#195 = ADVANCED_FACE ( 'NONE', ( #43 ), #38, .T. ) ;
#196 = LINE ( 'NONE', #176, #94 ) ;
#197 = CARTESIAN_POINT ( 'NONE',  ( 8.416673061450451200, -25.70077098688817000, -2.571874195048704500 ) ) ;
#198 = DIRECTION ( 'NONE',  ( -0.0000000000000000000, -0.0000000000000000000, -1.000000000000000000 ) ) ;
#199 = CARTESIAN_POINT ( 'NONE',  ( 8.644465534320060500, -8.681692205876887100, 0.8687762777638479200 ) ) ;
#200 =( NAMED_UNIT ( * ) PLANE_ANGLE_UNIT ( ) SI_UNIT ( $, .RADIAN. ) );
#201 = ORIENTED_EDGE ( 'NONE', *, *, #74, .T. ) ;
#202 = EDGE_CURVE ( 'NONE', #216, #209, #196, .T. ) ;
#203 = APPLICATION_PROTOCOL_DEFINITION ( 'international standard', 'config_control_design', 1994, #50 ) ;
#204 = ADVANCED_BREP_SHAPE_REPRESENTATION ( '112-0511 BK7 pl-cv 50.8 F-250', ( #101, #117 ), #136 ) ;
#205 = PERSON ( 'UNSPECIFIED', 'UNSPECIFIED', 'UNSPECIFIED', ('UNSPECIFIED'), ('UNSPECIFIED'), ('UNSPECIFIED') ) ;
#206 = AXIS2_PLACEMENT_3D ( 'NONE', #83, #42, #171 ) ;
#207 = DATE_AND_TIME ( #170, #10 ) ;
#208 = CIRCLE ( 'NONE', #103, 25.39999999999999900 ) ;
#209 = VERTEX_POINT ( 'NONE', #227 ) ;
#210 = APPROVAL ( #54, 'UNSPECIFIED' ) ;
#211 = APPROVAL ( #95, 'UNSPECIFIED' ) ;
#212 = DIRECTION ( 'NONE',  ( 1.000000000000000000, 0.0000000000000000000, 0.0000000000000000000 ) ) ;
#213 = ORIENTED_EDGE ( 'NONE', *, *, #108, .F. ) ;
#214 = CARTESIAN_POINT ( 'NONE',  ( 25.72154896206418000, -8.681692205876888800, -1.689815804894316600 ) ) ;
#215 = CARTESIAN_POINT ( 'NONE',  ( 9.992007221626412800E-016, 4.884981308350691100E-015, -2.511439193613009800 ) ) ;
#216 = VERTEX_POINT ( 'NONE', #8 ) ;
#217 = CARTESIAN_POINT ( 'NONE',  ( 16.79201188787315100, -25.70077098688817000, -3.404991813372144600 ) ) ;
#218 = ORIENTED_EDGE ( 'NONE', *, *, #202, .T. ) ;
#219 = DATE_AND_TIME ( #25, #31 ) ;
#220 = PERSON_AND_ORGANIZATION ( #205, #13 ) ;
#221 = VERTEX_POINT ( 'NONE', #159 ) ;
#222 = LOCAL_TIME ( 10, 5, 23.00000000000000000, #2 ) ;
#223 = CARTESIAN_POINT ( 'NONE',  ( -17.24647814603319400, 8.681692205876904800, 0.01311080459518733900 ) ) ;
#224 = CARTESIAN_POINT ( 'NONE',  ( -8.416673061450355300, 25.70077098688818400, -2.571874195048720500 ) ) ;
#225 = PERSON_AND_ORGANIZATION ( #205, #13 ) ;
#226 = CARTESIAN_POINT ( 'NONE',  ( 9.992007221626412800E-016, 4.884981308350691100E-015, -2.511439193613009800 ) ) ;
#227 = CARTESIAN_POINT ( 'NONE',  ( -25.39999999999999900, 7.995584178184967200E-015, 5.000000000000000000 ) ) ;
#228 = PERSON_AND_ORGANIZATION ( #205, #13 ) ;
#229 = DIRECTION ( 'NONE',  ( 1.000000000000000000, 0.0000000000000000000, 0.0000000000000000000 ) ) ;
#230 = DIRECTION ( 'NONE',  ( 1.000000000000000000, 0.0000000000000000000, -0.0000000000000000000 ) ) ;
#231 = ORIENTED_EDGE ( 'NONE', *, *, #147, .F. ) ;
#232 = PERSON_AND_ORGANIZATION_ROLE ( 'design_supplier' ) ;
#233 = CC_DESIGN_APPROVAL ( #211, ( #188 ) ) ;
#234 = APPROVAL_DATE_TIME ( #207, #211 ) ;
#235 = CIRCLE ( 'NONE', #192, 25.39999999999999900 ) ;
ENDSEC;
END-ISO-10303-21;
