ISO-10303-21;
HEADER;
FILE_DESCRIPTION (( 'STEP AP203' ),
    '1' );
FILE_NAME ('112-0509 BK7 pl-cv 50.8 F-200.STEP',
    '2019-01-16T07:57:14',
    ( '' ),
    ( '' ),
    'SwSTEP 2.0',
    'SolidWorks 2017',
    '' );
FILE_SCHEMA (( 'CONFIG_CONTROL_DESIGN' ));
ENDSEC;

DATA;
#1 = CARTESIAN_POINT ( 'NONE',  ( 25.82053995099667900, 8.748063978977395300, -2.129455122167300800 ) ) ;
#2 = DIRECTION ( 'NONE',  ( 0.0000000000000000000, 1.000000000000000000, 0.0000000000000000000 ) ) ;
#3 = CARTESIAN_POINT ( 'NONE',  ( -24.75229872241557100, 25.69844065608494400, -6.331607511461986500 ) ) ;
#4 = CARTESIAN_POINT ( 'NONE',  ( 9.992007221626412800E-016, 4.884981308350691100E-015, -3.158814409218349900 ) ) ;
#5 = ORIENTED_EDGE ( 'NONE', *, *, #161, .F. ) ;
#6 = APPLICATION_CONTEXT ( 'configuration controlled 3d designs of mechanical parts and assemblies' ) ;
#7 = AXIS2_PLACEMENT_3D ( 'NONE', #67, #165, #168 ) ;
#8 = PERSON_AND_ORGANIZATION ( #212, #19 ) ;
#9 = CALENDAR_DATE ( 2019, 16, 1 ) ;
#10 = CC_DESIGN_APPROVAL ( #124, ( #164 ) ) ;
#11 = ORIENTED_EDGE ( 'NONE', *, *, #12, .T. ) ;
#12 = EDGE_CURVE ( 'NONE', #147, #216, #201, .T. ) ;
#13 = MANIFOLD_SOLID_BREP ( 'Imported1', #34 ) ;
#14 = COORDINATED_UNIVERSAL_TIME_OFFSET ( 2, 0, .AHEAD. ) ;
#15 = ADVANCED_FACE ( 'NONE', ( #183 ), #37, .T. ) ;
#16 = CARTESIAN_POINT ( 'NONE',  ( 2.136858017711129700E-014, -25.39999999999998100, -3.158814409218356500 ) ) ;
#17 = CARTESIAN_POINT ( 'NONE',  ( 16.65174403639155500, 25.69844065608494100, -4.272342237781617600 ) ) ;
#18 = CARTESIAN_POINT ( 'NONE',  ( 8.718920228462277300, 8.748063978977395300, 1.101125328599606100 ) ) ;
#19 = ORGANIZATION ( 'UNSPECIFIED', 'UNSPECIFIED', '' ) ;
#20 = DIRECTION ( 'NONE',  ( 0.0000000000000000000, 0.0000000000000000000, 1.000000000000000000 ) ) ;
#21 = DIRECTION ( 'NONE',  ( 0.0000000000000000000, 0.0000000000000000000, 1.000000000000000000 ) ) ;
#22 = APPROVAL ( #136, 'UNSPECIFIED' ) ;
#23 = CARTESIAN_POINT ( 'NONE',  ( 25.39999999999999900, 4.884981308350691100E-015, 5.000000000000000900 ) ) ;
#24 = AXIS2_PLACEMENT_3D ( 'NONE', #173, #135, #191 ) ;
#25 = MECHANICAL_CONTEXT ( 'NONE', #6, 'mechanical' ) ;
#26 = ORIENTED_EDGE ( 'NONE', *, *, #82, .F. ) ;
#27 = LOCAL_TIME ( 9, 57, 14.00000000000000000, #80 ) ;
#28 = SECURITY_CLASSIFICATION_LEVEL ( 'unclassified' ) ;
#29 = SECURITY_CLASSIFICATION ( '', '', #28 ) ;
#30 = PRODUCT ( '112-0509 BK7 pl-cv 50.8 F-200', '112-0509 BK7 pl-cv 50.8 F-200', '', ( #25 ) ) ;
#31 = ORIENTED_EDGE ( 'NONE', *, *, #178, .F. ) ;
#32 = AXIS2_PLACEMENT_3D ( 'NONE', #184, #52, #2 ) ;
#33 = DATE_AND_TIME ( #175, #27 ) ;
#34 = CLOSED_SHELL ( 'NONE', ( #215, #64, #122, #232, #15 ) ) ;
#35 = UNCERTAINTY_MEASURE_WITH_UNIT (LENGTH_MEASURE( 1.000000000000000100E-005 ), #176, 'distance_accuracy_value', 'NONE');
#36 = CARTESIAN_POINT ( 'NONE',  ( 9.992007221626412800E-016, 4.884981308350691100E-015, -3.158814409218349900 ) ) ;
#37 = PLANE ( 'NONE',  #198 ) ;
#38 = EDGE_LOOP ( 'NONE', ( #87, #84, #26 ) ) ;
#39 = CARTESIAN_POINT ( 'NONE',  ( 24.75229872241546800, 25.69844065608494400, -6.331607511461980300 ) ) ;
#40 = CC_DESIGN_PERSON_AND_ORGANIZATION_ASSIGNMENT ( #86, #102, ( #90 ) ) ;
#41 = CARTESIAN_POINT ( 'NONE',  ( 0.0000000000000000000, 0.0000000000000000000, 0.0000000000000000000 ) ) ;
#42 = ORIENTED_EDGE ( 'NONE', *, *, #178, .T. ) ;
#43 = CARTESIAN_POINT ( 'NONE',  ( 25.82053995099667900, -8.748063978977391700, -2.129455122167299500 ) ) ;
#44 = DATE_AND_TIME ( #158, #157 ) ;
#45 = CIRCLE ( 'NONE', #93, 25.39999999999999900 ) ;
#46 = LINE ( 'NONE', #59, #233 ) ;
#47 = EDGE_LOOP ( 'NONE', ( #137, #91, #42, #106, #174 ) ) ;
#48 = PERSON_AND_ORGANIZATION ( #212, #19 ) ;
#49 = CC_DESIGN_APPROVAL ( #22, ( #29 ) ) ;
#50 = AXIS2_PLACEMENT_3D ( 'NONE', #36, #105, #202 ) ;
#51 = CARTESIAN_POINT ( 'NONE',  ( 25.39999999999999900, 4.884981308350691100E-015, -3.158814409218349900 ) ) ;
#52 = DIRECTION ( 'NONE',  ( 1.000000000000000000, 0.0000000000000000000, -2.832073977186420200E-016 ) ) ;
#53 = CARTESIAN_POINT ( 'NONE',  ( 8.718920228462277300, -8.748063978977391700, 1.101125328599607900 ) ) ;
#54 = CARTESIAN_POINT ( 'NONE',  ( -17.37038757358141100, 8.748063978977395300, 0.01868238477918280800 ) ) ;
#55 = COORDINATED_UNIVERSAL_TIME_OFFSET ( 2, 0, .AHEAD. ) ;
#56 = DESIGN_CONTEXT ( 'detailed design', #211, 'design' ) ;
#57 = CARTESIAN_POINT ( 'NONE',  ( -25.39999999999999900, 7.995584178184967200E-015, -3.158814409218349900 ) ) ;
#58 = CARTESIAN_POINT ( 'NONE',  ( 0.0000000000000000000, 8.748063978977395300, 1.101125328599623600 ) ) ;
#59 = CARTESIAN_POINT ( 'NONE',  ( -25.39999999999999900, 7.995584178184967200E-015, -3.158814409218349900 ) ) ;
#60 = EDGE_LOOP ( 'NONE', ( #169, #11, #123, #160, #79 ) ) ;
#61 = PERSON_AND_ORGANIZATION_ROLE ( 'classification_officer' ) ;
#62 = CIRCLE ( 'NONE', #24, 25.39999999999999900 ) ;
#63 = LOCAL_TIME ( 9, 57, 14.00000000000000000, #55 ) ;
#64 = ADVANCED_FACE ( 'NONE', ( #185 ), #155, .T. ) ;
#65 = APPROVAL_DATE_TIME ( #119, #124 ) ;
#66 = ORIENTED_EDGE ( 'NONE', *, *, #75, .F. ) ;
#67 = CARTESIAN_POINT ( 'NONE',  ( 9.992007221626412800E-016, 4.884981308350691100E-015, -3.158814409218349900 ) ) ;
#68 = PERSON_AND_ORGANIZATION ( #212, #19 ) ;
#69 = CARTESIAN_POINT ( 'NONE',  ( 2.257502662469695600E-014, 8.748063978977395300, 1.101125328599608300 ) ) ;
#70 = VERTEX_POINT ( 'NONE', #16 ) ;
#71 = COORDINATED_UNIVERSAL_TIME_OFFSET ( 2, 0, .AHEAD. ) ;
#72 = CARTESIAN_POINT ( 'NONE',  ( -16.65174403639162600, 25.69844065608494100, -4.272342237781607800 ) ) ;
#73 = CARTESIAN_POINT ( 'NONE',  ( -3.469446951953614200E-015, -8.748063978977391700, 1.101125328599625400 ) ) ;
#74 = CARTESIAN_POINT ( 'NONE',  ( 24.75229872241546800, -25.69844065608494100, -6.331607511461980300 ) ) ;
#75 = EDGE_CURVE ( 'NONE', #147, #70, #134, .T. ) ;
#76 = DIRECTION ( 'NONE',  ( 1.000000000000000000, 0.0000000000000000000, 0.0000000000000000000 ) ) ;
#77 = DIRECTION ( 'NONE',  ( -0.0000000000000000000, -0.0000000000000000000, -1.000000000000000000 ) ) ;
#78 =( NAMED_UNIT ( * ) PLANE_ANGLE_UNIT ( ) SI_UNIT ( $, .RADIAN. ) );
#79 = ORIENTED_EDGE ( 'NONE', *, *, #88, .F. ) ;
#80 = COORDINATED_UNIVERSAL_TIME_OFFSET ( 2, 0, .AHEAD. ) ;
#81 = DIRECTION ( 'NONE',  ( 1.000000000000000000, 0.0000000000000000000, 0.0000000000000000000 ) ) ;
#82 = EDGE_CURVE ( 'NONE', #216, #70, #45, .T. ) ;
#83 = APPLICATION_PROTOCOL_DEFINITION ( 'international standard', 'config_control_design', 1994, #6 ) ;
#84 = ORIENTED_EDGE ( 'NONE', *, *, #75, .T. ) ;
#85 = PRODUCT_DEFINITION_SHAPE ( 'NONE', 'NONE',  #164 ) ;
#86 = PERSON_AND_ORGANIZATION ( #212, #19 ) ;
#87 = ORIENTED_EDGE ( 'NONE', *, *, #12, .F. ) ;
#88 = EDGE_CURVE ( 'NONE', #166, #179, #214, .T. ) ;
#89 = CARTESIAN_POINT ( 'NONE',  ( 0.0000000000000000000, 52.02000000000000300, 5.000000000000000000 ) ) ;
#90 = PRODUCT_DEFINITION_FORMATION_WITH_SPECIFIED_SOURCE ( 'ANY', '', #30, .NOT_KNOWN. ) ;
#91 = ORIENTED_EDGE ( 'NONE', *, *, #82, .T. ) ;
#92 = CARTESIAN_POINT ( 'NONE',  ( 9.992007221626412800E-016, 4.884981308350691100E-015, -3.158814409218349900 ) ) ;
#93 = AXIS2_PLACEMENT_3D ( 'NONE', #92, #219, #107 ) ;
#94 = CARTESIAN_POINT ( 'NONE',  ( -25.82053995099679600, -8.748063978977391700, -2.129455122167306600 ) ) ;
#95 = CARTESIAN_POINT ( 'NONE',  ( -16.65174403639162600, -25.69844065608493700, -4.272342237781607800 ) ) ;
#96 = CARTESIAN_POINT ( 'NONE',  ( 9.992007221626412800E-016, 4.884981308350691100E-015, -3.158814409218349900 ) ) ;
#97 = DIRECTION ( 'NONE',  ( 0.0000000000000000000, 0.0000000000000000000, 1.000000000000000000 ) ) ;
#98 = CYLINDRICAL_SURFACE ( 'NONE', #156, 25.39999999999999900 ) ;
#99 = APPROVAL_PERSON_ORGANIZATION ( #48, #126, #120 ) ;
#100 = AXIS2_PLACEMENT_3D ( 'NONE', #41, #153, #81 ) ;
#101 = DATE_TIME_ROLE ( 'creation_date' ) ;
#102 = PERSON_AND_ORGANIZATION_ROLE ( 'creator' ) ;
#103 = CC_DESIGN_DATE_AND_TIME_ASSIGNMENT ( #33, #138, ( #29 ) ) ;
#104 = APPROVAL_DATE_TIME ( #44, #22 ) ;
#105 = DIRECTION ( 'NONE',  ( 0.0000000000000000000, 0.0000000000000000000, 1.000000000000000000 ) ) ;
#106 = ORIENTED_EDGE ( 'NONE', *, *, #88, .T. ) ;
#107 = DIRECTION ( 'NONE',  ( 1.000000000000000000, 0.0000000000000000000, 0.0000000000000000000 ) ) ;
#108 = CARTESIAN_POINT ( 'NONE',  ( 17.37038757358134700, 8.748063978977395300, 0.01868238477917197300 ) ) ;
#109 = CC_DESIGN_PERSON_AND_ORGANIZATION_ASSIGNMENT ( #8, #139, ( #30 ) ) ;
#110 = COORDINATED_UNIVERSAL_TIME_OFFSET ( 2, 0, .AHEAD. ) ;
#111 = LOCAL_TIME ( 9, 57, 14.00000000000000000, #110 ) ;
#112 = CARTESIAN_POINT ( 'NONE',  ( 16.65174403639155500, -25.69844065608493700, -4.272342237781617600 ) ) ;
#113 = DIRECTION ( 'NONE',  ( 1.000000000000000000, 0.0000000000000000000, 0.0000000000000000000 ) ) ;
#114 = FACE_OUTER_BOUND ( 'NONE', #38, .T. ) ;
#115 = CARTESIAN_POINT ( 'NONE',  ( -8.718920228462300400, -8.748063978977391700, 1.101125328599625900 ) ) ;
#116 = CARTESIAN_POINT ( 'NONE',  ( 2.134709395221717500E-014, -25.69844065608494100, -3.234681865602606600 ) ) ;
#117 = CC_DESIGN_APPROVAL ( #126, ( #90 ) ) ;
#118 = APPROVAL_ROLE ( '' ) ;
#119 = DATE_AND_TIME ( #150, #203 ) ;
#120 = APPROVAL_ROLE ( '' ) ;
#121 = PERSON_AND_ORGANIZATION_ROLE ( 'design_supplier' ) ;
#122 = ADVANCED_FACE ( 'NONE', ( #197 ), #129, .F. ) ;
#123 = ORIENTED_EDGE ( 'NONE', *, *, #186, .T. ) ;
#124 = APPROVAL ( #231, 'UNSPECIFIED' ) ;
#125 = CIRCLE ( 'NONE', #220, 25.39999999999999900 ) ;
#126 = APPROVAL ( #229, 'UNSPECIFIED' ) ;
#127 = CIRCLE ( 'NONE', #142, 25.39999999999999900 ) ;
#128 = EDGE_CURVE ( 'NONE', #166, #147, #127, .T. ) ;
#129 =( BOUNDED_SURFACE ( )  B_SPLINE_SURFACE ( 3, 3, ( 
 ( #235, #130, #17, #39 ),
 ( #69, #18, #108, #1 ),
 ( #170, #53, #189, #43 ),
 ( #116, #204, #112, #74 ) ),
 .UNSPECIFIED., .F., .F., .F. ) 
 B_SPLINE_SURFACE_WITH_KNOTS ( ( 4, 4 ),
 ( 4, 4 ),
 ( 0.0000000000000000000, 1.000000000000000000 ),
 ( 0.0000000000000000000, 1.000000000000000000 ),
 .UNSPECIFIED. ) 
 GEOMETRIC_REPRESENTATION_ITEM ( )  RATIONAL_B_SPLINE_SURFACE ( (
 ( 1.000000000000000000, 0.9948424130835996600, 0.9948424130835996600, 1.000000000000000000),
 ( 0.9792048738951938400, 0.9741545396491165800, 0.9741545396491165800, 0.9792048738951938400),
 ( 0.9792048738951938400, 0.9741545396491165800, 0.9741545396491165800, 0.9792048738951938400),
 ( 1.000000000000000000, 0.9948424130835996600, 0.9948424130835996600, 1.000000000000000000) ) ) 
 REPRESENTATION_ITEM ( '' )  SURFACE ( )  );
#130 = CARTESIAN_POINT ( 'NONE',  ( 8.358203137555950200, 25.69844065608494100, -3.234681865602609700 ) ) ;
#131 = CARTESIAN_POINT ( 'NONE',  ( 2.136858017711129700E-014, 25.39999999999999100, -3.158814409218356500 ) ) ;
#132 = DIRECTION ( 'NONE',  ( 0.0000000000000000000, 0.0000000000000000000, 1.000000000000000000 ) ) ;
#133 = CARTESIAN_POINT ( 'NONE',  ( -8.718920228462296900, 8.748063978977395300, 1.101125328599624800 ) ) ;
#134 = CIRCLE ( 'NONE', #32, 103.6999999999999900 ) ;
#135 = DIRECTION ( 'NONE',  ( -0.0000000000000000000, -0.0000000000000000000, -1.000000000000000000 ) ) ;
#136 = APPROVAL_STATUS ( 'not_yet_approved' ) ;
#137 = ORIENTED_EDGE ( 'NONE', *, *, #186, .F. ) ;
#138 = DATE_TIME_ROLE ( 'classification_date' ) ;
#139 = PERSON_AND_ORGANIZATION_ROLE ( 'design_owner' ) ;
#140 = ORIENTED_EDGE ( 'NONE', *, *, #226, .F. ) ;
#141 = VECTOR ( 'NONE', #132, 1000.000000000000000 ) ;
#142 = AXIS2_PLACEMENT_3D ( 'NONE', #96, #20, #152 ) ;
#143 = CIRCLE ( 'NONE', #180, 25.39999999999999900 ) ;
#144 = CARTESIAN_POINT ( 'NONE',  ( 25.39999999999999900, 4.884981308350691100E-015, -3.158814409218349900 ) ) ;
#145 = ADVANCED_BREP_SHAPE_REPRESENTATION ( '112-0509 BK7 pl-cv 50.8 F-200', ( #13, #100 ), #149 ) ;
#146 = CC_DESIGN_PERSON_AND_ORGANIZATION_ASSIGNMENT ( #182, #61, ( #29 ) ) ;
#147 = VERTEX_POINT ( 'NONE', #131 ) ;
#148 = CALENDAR_DATE ( 2019, 16, 1 ) ;
#149 =( GEOMETRIC_REPRESENTATION_CONTEXT ( 3 ) GLOBAL_UNCERTAINTY_ASSIGNED_CONTEXT ( ( #35 ) ) GLOBAL_UNIT_ASSIGNED_CONTEXT ( ( #176, #78, #194 ) ) REPRESENTATION_CONTEXT ( 'NONE', 'WORKASPACE' ) );
#150 = CALENDAR_DATE ( 2019, 16, 1 ) ;
#151 = PERSON_AND_ORGANIZATION ( #212, #19 ) ;
#152 = DIRECTION ( 'NONE',  ( 1.000000000000000000, 0.0000000000000000000, 0.0000000000000000000 ) ) ;
#153 = DIRECTION ( 'NONE',  ( 0.0000000000000000000, 0.0000000000000000000, 1.000000000000000000 ) ) ;
#154 = CARTESIAN_POINT ( 'NONE',  ( -8.358203137555971600, 25.69844065608494100, -3.234681865602592900 ) ) ;
#155 = CYLINDRICAL_SURFACE ( 'NONE', #50, 25.39999999999999900 ) ;
#156 = AXIS2_PLACEMENT_3D ( 'NONE', #4, #21, #113 ) ;
#157 = LOCAL_TIME ( 9, 57, 14.00000000000000000, #71 ) ;
#158 = CALENDAR_DATE ( 2019, 16, 1 ) ;
#159 = PRODUCT_RELATED_PRODUCT_CATEGORY ( 'detail', '', ( #30 ) ) ;
#160 = ORIENTED_EDGE ( 'NONE', *, *, #226, .T. ) ;
#161 = EDGE_CURVE ( 'NONE', #179, #181, #125, .T. ) ;
#162 = PERSON_AND_ORGANIZATION ( #212, #19 ) ;
#163 = SHAPE_DEFINITION_REPRESENTATION ( #85, #145 ) ;
#164 = PRODUCT_DEFINITION ( 'UNKNOWN', '', #90, #56 ) ;
#165 = DIRECTION ( 'NONE',  ( 0.0000000000000000000, 0.0000000000000000000, 1.000000000000000000 ) ) ;
#166 = VERTEX_POINT ( 'NONE', #51 ) ;
#167 = DATE_AND_TIME ( #148, #111 ) ;
#168 = DIRECTION ( 'NONE',  ( 1.000000000000000000, 0.0000000000000000000, 0.0000000000000000000 ) ) ;
#169 = ORIENTED_EDGE ( 'NONE', *, *, #128, .T. ) ;
#170 = CARTESIAN_POINT ( 'NONE',  ( 2.257502662469695600E-014, -8.748063978977391700, 1.101125328599609900 ) ) ;
#171 = CARTESIAN_POINT ( 'NONE',  ( -25.82053995099679300, 8.748063978977395300, -2.129455122167308400 ) ) ;
#172 = CARTESIAN_POINT ( 'NONE',  ( 0.0000000000000000000, 25.69844065608494400, -3.234681865602592900 ) ) ;
#173 = CARTESIAN_POINT ( 'NONE',  ( 9.992007221626412800E-016, 4.884981308350691100E-015, 5.000000000000000900 ) ) ;
#174 = ORIENTED_EDGE ( 'NONE', *, *, #161, .T. ) ;
#175 = CALENDAR_DATE ( 2019, 16, 1 ) ;
#176 =( LENGTH_UNIT ( ) NAMED_UNIT ( * ) SI_UNIT ( .MILLI., .METRE. ) );
#177 =( BOUNDED_SURFACE ( )  B_SPLINE_SURFACE ( 3, 3, ( 
 ( #3, #72, #154, #172 ),
 ( #171, #54, #133, #58 ),
 ( #94, #190, #115, #73 ),
 ( #222, #95, #206, #223 ) ),
 .UNSPECIFIED., .F., .F., .F. ) 
 B_SPLINE_SURFACE_WITH_KNOTS ( ( 4, 4 ),
 ( 4, 4 ),
 ( 0.0000000000000000000, 1.000000000000000000 ),
 ( 0.0000000000000000000, 1.000000000000000000 ),
 .UNSPECIFIED. ) 
 GEOMETRIC_REPRESENTATION_ITEM ( )  RATIONAL_B_SPLINE_SURFACE ( (
 ( 1.000000000000000000, 0.9948424130835996600, 0.9948424130835996600, 1.000000000000000000),
 ( 0.9792048738951938400, 0.9741545396491165800, 0.9741545396491165800, 0.9792048738951938400),
 ( 0.9792048738951938400, 0.9741545396491165800, 0.9741545396491165800, 0.9792048738951938400),
 ( 1.000000000000000000, 0.9948424130835996600, 0.9948424130835996600, 1.000000000000000000) ) ) 
 REPRESENTATION_ITEM ( '' )  SURFACE ( )  );
#178 = EDGE_CURVE ( 'NONE', #70, #166, #143, .T. ) ;
#179 = VERTEX_POINT ( 'NONE', #23 ) ;
#180 = AXIS2_PLACEMENT_3D ( 'NONE', #207, #97, #205 ) ;
#181 = VERTEX_POINT ( 'NONE', #227 ) ;
#182 = PERSON_AND_ORGANIZATION ( #212, #19 ) ;
#183 = FACE_OUTER_BOUND ( 'NONE', #224, .T. ) ;
#184 = CARTESIAN_POINT ( 'NONE',  ( -7.105427357601000300E-015, 7.105427357601000300E-015, -103.7000000000000000 ) ) ;
#185 = FACE_OUTER_BOUND ( 'NONE', #60, .T. ) ;
#186 = EDGE_CURVE ( 'NONE', #216, #181, #46, .T. ) ;
#187 = APPROVAL_DATE_TIME ( #200, #126 ) ;
#188 = DIRECTION ( 'NONE',  ( 0.0000000000000000000, 0.0000000000000000000, 1.000000000000000000 ) ) ;
#189 = CARTESIAN_POINT ( 'NONE',  ( 17.37038757358134700, -8.748063978977391700, 0.01868238477917327100 ) ) ;
#190 = CARTESIAN_POINT ( 'NONE',  ( -17.37038757358141100, -8.748063978977391700, 0.01868238477918454700 ) ) ;
#191 = DIRECTION ( 'NONE',  ( 1.000000000000000000, 0.0000000000000000000, 0.0000000000000000000 ) ) ;
#192 = CARTESIAN_POINT ( 'NONE',  ( 9.992007221626412800E-016, 4.884981308350691100E-015, 5.000000000000000900 ) ) ;
#193 = PERSON_AND_ORGANIZATION_ROLE ( 'creator' ) ;
#194 =( NAMED_UNIT ( * ) SI_UNIT ( $, .STERADIAN. ) SOLID_ANGLE_UNIT ( ) );
#195 = APPLICATION_PROTOCOL_DEFINITION ( 'international standard', 'config_control_design', 1994, #211 ) ;
#196 = CC_DESIGN_PERSON_AND_ORGANIZATION_ASSIGNMENT ( #210, #193, ( #164 ) ) ;
#197 = FACE_OUTER_BOUND ( 'NONE', #230, .T. ) ;
#198 = AXIS2_PLACEMENT_3D ( 'NONE', #89, #188, #218 ) ;
#199 = APPROVAL_PERSON_ORGANIZATION ( #162, #124, #213 ) ;
#200 = DATE_AND_TIME ( #9, #63 ) ;
#201 = CIRCLE ( 'NONE', #7, 25.39999999999999900 ) ;
#202 = DIRECTION ( 'NONE',  ( 1.000000000000000000, 0.0000000000000000000, 0.0000000000000000000 ) ) ;
#203 = LOCAL_TIME ( 9, 57, 14.00000000000000000, #14 ) ;
#204 = CARTESIAN_POINT ( 'NONE',  ( 8.358203137555950200, -25.69844065608493700, -3.234681865602609700 ) ) ;
#205 = DIRECTION ( 'NONE',  ( 1.000000000000000000, 0.0000000000000000000, 0.0000000000000000000 ) ) ;
#206 = CARTESIAN_POINT ( 'NONE',  ( -8.358203137555971600, -25.69844065608493700, -3.234681865602592900 ) ) ;
#207 = CARTESIAN_POINT ( 'NONE',  ( 9.992007221626412800E-016, 4.884981308350691100E-015, -3.158814409218349900 ) ) ;
#208 = FACE_OUTER_BOUND ( 'NONE', #47, .T. ) ;
#209 = CC_DESIGN_DATE_AND_TIME_ASSIGNMENT ( #167, #101, ( #164 ) ) ;
#210 = PERSON_AND_ORGANIZATION ( #212, #19 ) ;
#211 = APPLICATION_CONTEXT ( 'configuration controlled 3d designs of mechanical parts and assemblies' ) ;
#212 = PERSON ( 'UNSPECIFIED', 'UNSPECIFIED', 'UNSPECIFIED', ('UNSPECIFIED'), ('UNSPECIFIED'), ('UNSPECIFIED') ) ;
#213 = APPROVAL_ROLE ( '' ) ;
#214 = LINE ( 'NONE', #144, #141 ) ;
#215 = ADVANCED_FACE ( 'NONE', ( #114 ), #177, .F. ) ;
#216 = VERTEX_POINT ( 'NONE', #57 ) ;
#217 = CC_DESIGN_PERSON_AND_ORGANIZATION_ASSIGNMENT ( #151, #121, ( #90 ) ) ;
#218 = DIRECTION ( 'NONE',  ( 1.000000000000000000, 0.0000000000000000000, -0.0000000000000000000 ) ) ;
#219 = DIRECTION ( 'NONE',  ( 0.0000000000000000000, 0.0000000000000000000, 1.000000000000000000 ) ) ;
#220 = AXIS2_PLACEMENT_3D ( 'NONE', #192, #77, #76 ) ;
#221 = APPROVAL_PERSON_ORGANIZATION ( #68, #22, #118 ) ;
#222 = CARTESIAN_POINT ( 'NONE',  ( -24.75229872241557100, -25.69844065608494100, -6.331607511461986500 ) ) ;
#223 = CARTESIAN_POINT ( 'NONE',  ( 0.0000000000000000000, -25.69844065608494100, -3.234681865602592900 ) ) ;
#224 = EDGE_LOOP ( 'NONE', ( #5, #140 ) ) ;
#225 = DIRECTION ( 'NONE',  ( 0.0000000000000000000, 0.0000000000000000000, 1.000000000000000000 ) ) ;
#226 = EDGE_CURVE ( 'NONE', #181, #179, #62, .T. ) ;
#227 = CARTESIAN_POINT ( 'NONE',  ( -25.39999999999999900, 7.995584178184967200E-015, 5.000000000000000900 ) ) ;
#228 = CC_DESIGN_SECURITY_CLASSIFICATION ( #29, ( #90 ) ) ;
#229 = APPROVAL_STATUS ( 'not_yet_approved' ) ;
#230 = EDGE_LOOP ( 'NONE', ( #66, #234, #31 ) ) ;
#231 = APPROVAL_STATUS ( 'not_yet_approved' ) ;
#232 = ADVANCED_FACE ( 'NONE', ( #208 ), #98, .T. ) ;
#233 = VECTOR ( 'NONE', #225, 1000.000000000000000 ) ;
#234 = ORIENTED_EDGE ( 'NONE', *, *, #128, .F. ) ;
#235 = CARTESIAN_POINT ( 'NONE',  ( 2.134709395221717500E-014, 25.69844065608494400, -3.234681865602606600 ) ) ;
ENDSEC;
END-ISO-10303-21;
