ISO-10303-21;
HEADER;
FILE_DESCRIPTION (( 'STEP AP203' ),
    '1' );
FILE_NAME ('112-0507 BK7 pl-cv 50.8 F-150.STEP',
    '2019-01-16T07:45:23',
    ( '' ),
    ( '' ),
    'SwSTEP 2.0',
    'SolidWorks 2017',
    '' );
FILE_SCHEMA (( 'CONFIG_CONTROL_DESIGN' ));
ENDSEC;

DATA;
#1 = EDGE_CURVE ( 'NONE', #175, #77, #123, .T. ) ;
#2 = CARTESIAN_POINT ( 'NONE',  ( 9.992007221626412800E-016, 4.884981308350691100E-015, -4.262490864747840100 ) ) ;
#3 = EDGE_LOOP ( 'NONE', ( #87, #18, #180 ) ) ;
#4 = DIRECTION ( 'NONE',  ( 0.0000000000000000000, 0.0000000000000000000, 1.000000000000000000 ) ) ;
#5 = DIRECTION ( 'NONE',  ( 0.0000000000000000000, 0.0000000000000000000, 1.000000000000000000 ) ) ;
#6 = ADVANCED_FACE ( 'NONE', ( #197 ), #174, .T. ) ;
#7 = CARTESIAN_POINT ( 'NONE',  ( 8.886507872786314300, -8.897124612084844800, 1.511324869727789500 ) ) ;
#8 = ADVANCED_FACE ( 'NONE', ( #86 ), #214, .T. ) ;
#9 = EDGE_LOOP ( 'NONE', ( #90, #145, #230 ) ) ;
#10 = APPROVAL_STATUS ( 'not_yet_approved' ) ;
#11 = MECHANICAL_CONTEXT ( 'NONE', #28, 'mechanical' ) ;
#12 = PERSON_AND_ORGANIZATION_ROLE ( 'classification_officer' ) ;
#13 = SHAPE_DEFINITION_REPRESENTATION ( #54, #108 ) ;
#14 = CIRCLE ( 'NONE', #61, 25.39999999999999900 ) ;
#15 = CC_DESIGN_PERSON_AND_ORGANIZATION_ASSIGNMENT ( #38, #43, ( #74 ) ) ;
#16 = ORGANIZATION ( 'UNSPECIFIED', 'UNSPECIFIED', '' ) ;
#17 =( BOUNDED_SURFACE ( )  B_SPLINE_SURFACE ( 3, 3, ( 
 ( #154, #143, #112, #53 ),
 ( #177, #55, #158, #114 ),
 ( #234, #94, #115, #186 ),
 ( #130, #187, #201, #144 ) ),
 .UNSPECIFIED., .F., .F., .F. ) 
 B_SPLINE_SURFACE_WITH_KNOTS ( ( 4, 4 ),
 ( 4, 4 ),
 ( 0.0000000000000000000, 1.000000000000000000 ),
 ( 0.0000000000000000000, 1.000000000000000000 ),
 .UNSPECIFIED. ) 
 GEOMETRIC_REPRESENTATION_ITEM ( )  RATIONAL_B_SPLINE_SURFACE ( (
 ( 1.000000000000000000, 0.9906960878400532500, 0.9906960878400532500, 1.000000000000000000),
 ( 0.9626060787417165500, 0.9536500763404728300, 0.9536500763404728300, 0.9626060787417165500),
 ( 0.9626060787417165500, 0.9536500763404728300, 0.9536500763404728300, 0.9626060787417165500),
 ( 1.000000000000000000, 0.9906960878400532500, 0.9906960878400532500, 1.000000000000000000) ) ) 
 REPRESENTATION_ITEM ( '' )  SURFACE ( )  );
#18 = ORIENTED_EDGE ( 'NONE', *, *, #1, .T. ) ;
#19 = CARTESIAN_POINT ( 'NONE',  ( -25.39999999999999900, 7.995584178184967200E-015, -4.262490864747840100 ) ) ;
#20 = DATE_AND_TIME ( #136, #204 ) ;
#21 = DIRECTION ( 'NONE',  ( 1.000000000000000000, 0.0000000000000000000, 0.0000000000000000000 ) ) ;
#22 = CARTESIAN_POINT ( 'NONE',  ( -25.39999999999999900, 7.995584178184967200E-015, 5.000000000000000900 ) ) ;
#23 = AXIS2_PLACEMENT_3D ( 'NONE', #203, #163, #217 ) ;
#24 = CARTESIAN_POINT ( 'NONE',  ( 2.131628207280299900E-014, -25.39999999999998400, -4.262490864747838300 ) ) ;
#25 = CARTESIAN_POINT ( 'NONE',  ( 16.34164086564379300, 25.69327870474624100, -5.734302434638251200 ) ) ;
#26 = VECTOR ( 'NONE', #181, 1000.000000000000000 ) ;
#27 = CARTESIAN_POINT ( 'NONE',  ( 2.131628207280299900E-014, -25.69327870474623400, -4.364431519660552500 ) ) ;
#28 = APPLICATION_CONTEXT ( 'configuration controlled 3d designs of mechanical parts and assemblies' ) ;
#29 = EDGE_CURVE ( 'NONE', #176, #175, #103, .T. ) ;
#30 = CIRCLE ( 'NONE', #23, 25.39999999999999900 ) ;
#31 = DATE_AND_TIME ( #122, #196 ) ;
#32 = ORIENTED_EDGE ( 'NONE', *, *, #216, .F. ) ;
#33 = VERTEX_POINT ( 'NONE', #37 ) ;
#34 = CARTESIAN_POINT ( 'NONE',  ( 25.39999999999999900, 4.884981308350691100E-015, -4.262490864747840100 ) ) ;
#35 = DIRECTION ( 'NONE',  ( 0.0000000000000000000, 0.0000000000000000000, 1.000000000000000000 ) ) ;
#36 = DIRECTION ( 'NONE',  ( 0.0000000000000000000, 0.0000000000000000000, 1.000000000000000000 ) ) ;
#37 = CARTESIAN_POINT ( 'NONE',  ( 25.39999999999999900, 4.884981308350691100E-015, 5.000000000000000900 ) ) ;
#38 = PERSON_AND_ORGANIZATION ( #209, #16 ) ;
#39 = CARTESIAN_POINT ( 'NONE',  ( 2.131628207280299300E-014, 8.897124612084848400, 1.511324869727809200 ) ) ;
#40 = CLOSED_SHELL ( 'NONE', ( #60, #169, #80, #6, #8 ) ) ;
#41 = EDGE_CURVE ( 'NONE', #213, #77, #206, .T. ) ;
#42 = FACE_OUTER_BOUND ( 'NONE', #111, .T. ) ;
#43 = PERSON_AND_ORGANIZATION_ROLE ( 'creator' ) ;
#44 = COORDINATED_UNIVERSAL_TIME_OFFSET ( 2, 0, .AHEAD. ) ;
#45 = APPROVAL_ROLE ( '' ) ;
#46 = AXIS2_PLACEMENT_3D ( 'NONE', #200, #118, #151 ) ;
#47 = ORIENTED_EDGE ( 'NONE', *, *, #41, .T. ) ;
#48 = APPROVAL_DATE_TIME ( #20, #211 ) ;
#49 = CC_DESIGN_SECURITY_CLASSIFICATION ( #125, ( #74 ) ) ;
#50 = PERSON_AND_ORGANIZATION ( #209, #16 ) ;
#51 = EDGE_CURVE ( 'NONE', #176, #33, #70, .T. ) ;
#52 = CARTESIAN_POINT ( 'NONE',  ( 0.0000000000000000000, 52.02000000000000300, 5.000000000000000000 ) ) ;
#53 = CARTESIAN_POINT ( 'NONE',  ( 0.0000000000000000000, 25.69327870474624500, -4.364431519660528600 ) ) ;
#54 = PRODUCT_DEFINITION_SHAPE ( 'NONE', 'NONE',  #215 ) ;
#55 = CARTESIAN_POINT ( 'NONE',  ( -17.64899681258697600, 8.897124612084846600, 0.03186221289471109800 ) ) ;
#56 = CC_DESIGN_APPROVAL ( #102, ( #125 ) ) ;
#57 = COORDINATED_UNIVERSAL_TIME_OFFSET ( 2, 0, .AHEAD. ) ;
#58 = DIRECTION ( 'NONE',  ( 0.0000000000000000000, 1.000000000000000000, 3.567096210722132400E-016 ) ) ;
#59 = CARTESIAN_POINT ( 'NONE',  ( 26.04289053720682300, 8.897124612084848400, -2.885768728962164100 ) ) ;
#60 = ADVANCED_FACE ( 'NONE', ( #195 ), #17, .F. ) ;
#61 = AXIS2_PLACEMENT_3D ( 'NONE', #62, #218, #116 ) ;
#62 = CARTESIAN_POINT ( 'NONE',  ( 9.992007221626412800E-016, 4.884981308350691100E-015, -4.262490864747840100 ) ) ;
#63 = DIRECTION ( 'NONE',  ( 1.000000000000000000, 0.0000000000000000000, 0.0000000000000000000 ) ) ;
#64 = ORIENTED_EDGE ( 'NONE', *, *, #216, .T. ) ;
#65 = DATE_TIME_ROLE ( 'classification_date' ) ;
#66 = APPROVAL_ROLE ( '' ) ;
#67 = COORDINATED_UNIVERSAL_TIME_OFFSET ( 2, 0, .AHEAD. ) ;
#68 = CC_DESIGN_PERSON_AND_ORGANIZATION_ASSIGNMENT ( #50, #79, ( #215 ) ) ;
#69 = CC_DESIGN_DATE_AND_TIME_ASSIGNMENT ( #83, #149, ( #215 ) ) ;
#70 = LINE ( 'NONE', #34, #26 ) ;
#71 = AXIS2_PLACEMENT_3D ( 'NONE', #95, #165, #63 ) ;
#72 = CARTESIAN_POINT ( 'NONE',  ( 2.131628207280299300E-014, -8.897124612084844800, 1.511324869727789500 ) ) ;
#73 = MANIFOLD_SOLID_BREP ( 'Imported1', #40 ) ;
#74 = PRODUCT_DEFINITION_FORMATION_WITH_SPECIFIED_SOURCE ( 'ANY', '', #157, .NOT_KNOWN. ) ;
#75 = DIRECTION ( 'NONE',  ( 0.0000000000000000000, 0.0000000000000000000, 1.000000000000000000 ) ) ;
#76 = CARTESIAN_POINT ( 'NONE',  ( 8.228236525218328300, -25.69327870474623800, -4.364431519660552500 ) ) ;
#77 = VERTEX_POINT ( 'NONE', #24 ) ;
#78 = CARTESIAN_POINT ( 'NONE',  ( 25.39999999999999900, 4.884981308350691100E-015, -4.262490864747840100 ) ) ;
#79 = PERSON_AND_ORGANIZATION_ROLE ( 'creator' ) ;
#80 = ADVANCED_FACE ( 'NONE', ( #188 ), #192, .F. ) ;
#81 = AXIS2_PLACEMENT_3D ( 'NONE', #52, #110, #199 ) ;
#82 = CYLINDRICAL_SURFACE ( 'NONE', #170, 25.39999999999999900 ) ;
#83 = DATE_AND_TIME ( #191, #113 ) ;
#84 =( NAMED_UNIT ( * ) SI_UNIT ( $, .STERADIAN. ) SOLID_ANGLE_UNIT ( ) );
#85 =( GEOMETRIC_REPRESENTATION_CONTEXT ( 3 ) GLOBAL_UNCERTAINTY_ASSIGNED_CONTEXT ( ( #142 ) ) GLOBAL_UNIT_ASSIGNED_CONTEXT ( ( #150, #228, #84 ) ) REPRESENTATION_CONTEXT ( 'NONE', 'WORKASPACE' ) );
#86 = FACE_OUTER_BOUND ( 'NONE', #148, .T. ) ;
#87 = ORIENTED_EDGE ( 'NONE', *, *, #124, .F. ) ;
#88 = APPROVAL_PERSON_ORGANIZATION ( #104, #189, #45 ) ;
#89 = DIRECTION ( 'NONE',  ( 0.0000000000000000000, 0.0000000000000000000, 1.000000000000000000 ) ) ;
#90 = ORIENTED_EDGE ( 'NONE', *, *, #1, .F. ) ;
#91 = CARTESIAN_POINT ( 'NONE',  ( 2.131628207280299900E-014, 2.131628207280299900E-014, -77.81000000000000200 ) ) ;
#92 = DIRECTION ( 'NONE',  ( 1.000000000000000000, 0.0000000000000000000, 0.0000000000000000000 ) ) ;
#93 = PERSON_AND_ORGANIZATION ( #209, #16 ) ;
#94 = CARTESIAN_POINT ( 'NONE',  ( -17.64899681258697900, -8.897124612084857300, 0.03186221289469549200 ) ) ;
#95 = CARTESIAN_POINT ( 'NONE',  ( 9.992007221626412800E-016, 4.884981308350691100E-015, 5.000000000000000900 ) ) ;
#96 = LOCAL_TIME ( 9, 45, 22.00000000000000000, #57 ) ;
#97 = CC_DESIGN_APPROVAL ( #189, ( #74 ) ) ;
#98 = CARTESIAN_POINT ( 'NONE',  ( 24.11375381737206100, -25.69327870474623400, -8.435808788603475600 ) ) ;
#99 = EDGE_LOOP ( 'NONE', ( #132, #47, #210, #184, #166 ) ) ;
#100 = APPLICATION_PROTOCOL_DEFINITION ( 'international standard', 'config_control_design', 1994, #229 ) ;
#101 = DATE_AND_TIME ( #232, #153 ) ;
#102 = APPROVAL ( #225, 'UNSPECIFIED' ) ;
#103 = CIRCLE ( 'NONE', #105, 25.39999999999999900 ) ;
#104 = PERSON_AND_ORGANIZATION ( #209, #16 ) ;
#105 = AXIS2_PLACEMENT_3D ( 'NONE', #156, #36, #109 ) ;
#106 = APPROVAL_PERSON_ORGANIZATION ( #139, #102, #66 ) ;
#107 = EDGE_CURVE ( 'NONE', #213, #152, #140, .T. ) ;
#108 = ADVANCED_BREP_SHAPE_REPRESENTATION ( '112-0507 BK7 pl-cv 50.8 F-150', ( #73, #131 ), #85 ) ;
#109 = DIRECTION ( 'NONE',  ( 1.000000000000000000, 0.0000000000000000000, 0.0000000000000000000 ) ) ;
#110 = DIRECTION ( 'NONE',  ( 0.0000000000000000000, 0.0000000000000000000, 1.000000000000000000 ) ) ;
#111 = EDGE_LOOP ( 'NONE', ( #223, #135, #190, #64, #138 ) ) ;
#112 = CARTESIAN_POINT ( 'NONE',  ( -8.228236525218314100, 25.69327870474624100, -4.364431519660532100 ) ) ;
#113 = LOCAL_TIME ( 9, 45, 22.00000000000000000, #67 ) ;
#114 = CARTESIAN_POINT ( 'NONE',  ( -3.469446951953613800E-015, 8.897124612084846600, 1.511324869727807200 ) ) ;
#115 = CARTESIAN_POINT ( 'NONE',  ( -8.886507872786305400, -8.897124612084857300, 1.511324869727789900 ) ) ;
#116 = DIRECTION ( 'NONE',  ( 1.000000000000000000, 0.0000000000000000000, 0.0000000000000000000 ) ) ;
#117 = CARTESIAN_POINT ( 'NONE',  ( -25.39999999999999900, 7.995584178184967200E-015, -4.262490864747840100 ) ) ;
#118 = DIRECTION ( 'NONE',  ( -0.0000000000000000000, -0.0000000000000000000, -1.000000000000000000 ) ) ;
#119 = AXIS2_PLACEMENT_3D ( 'NONE', #233, #35, #21 ) ;
#120 = APPROVAL_STATUS ( 'not_yet_approved' ) ;
#121 = PERSON_AND_ORGANIZATION_ROLE ( 'design_owner' ) ;
#122 = CALENDAR_DATE ( 2019, 16, 1 ) ;
#123 = CIRCLE ( 'NONE', #219, 77.81000000000000200 ) ;
#124 = EDGE_CURVE ( 'NONE', #175, #213, #14, .T. ) ;
#125 = SECURITY_CLASSIFICATION ( '', '', #208 ) ;
#126 = ORIENTED_EDGE ( 'NONE', *, *, #226, .F. ) ;
#127 = CARTESIAN_POINT ( 'NONE',  ( 2.131628207280299900E-014, 25.69327870474624500, -4.364431519660525000 ) ) ;
#128 = CALENDAR_DATE ( 2019, 16, 1 ) ;
#129 = CARTESIAN_POINT ( 'NONE',  ( 8.228236525218328300, 25.69327870474624100, -4.364431519660526800 ) ) ;
#130 = CARTESIAN_POINT ( 'NONE',  ( -24.11375381737204600, -25.69327870474624800, -8.435808788603491600 ) ) ;
#131 = AXIS2_PLACEMENT_3D ( 'NONE', #220, #5, #134 ) ;
#132 = ORIENTED_EDGE ( 'NONE', *, *, #107, .F. ) ;
#133 = APPLICATION_PROTOCOL_DEFINITION ( 'international standard', 'config_control_design', 1994, #28 ) ;
#134 = DIRECTION ( 'NONE',  ( 1.000000000000000000, 0.0000000000000000000, 0.0000000000000000000 ) ) ;
#135 = ORIENTED_EDGE ( 'NONE', *, *, #124, .T. ) ;
#136 = CALENDAR_DATE ( 2019, 16, 1 ) ;
#137 = APPROVAL_ROLE ( '' ) ;
#138 = ORIENTED_EDGE ( 'NONE', *, *, #51, .F. ) ;
#139 = PERSON_AND_ORGANIZATION ( #209, #16 ) ;
#140 = LINE ( 'NONE', #19, #221 ) ;
#141 = APPROVAL_DATE_TIME ( #235, #102 ) ;
#142 = UNCERTAINTY_MEASURE_WITH_UNIT (LENGTH_MEASURE( 1.000000000000000100E-005 ), #150, 'distance_accuracy_value', 'NONE');
#143 = CARTESIAN_POINT ( 'NONE',  ( -16.34164086564378200, 25.69327870474624500, -5.734302434638262700 ) ) ;
#144 = CARTESIAN_POINT ( 'NONE',  ( -3.469446951953614200E-015, -25.69327870474625200, -4.364431519660554300 ) ) ;
#145 = ORIENTED_EDGE ( 'NONE', *, *, #29, .F. ) ;
#146 = CARTESIAN_POINT ( 'NONE',  ( 24.11375381737206400, 25.69327870474624500, -8.435808788603447200 ) ) ;
#147 = CARTESIAN_POINT ( 'NONE',  ( 16.34164086564378900, -25.69327870474623800, -5.734302434638279600 ) ) ;
#148 = EDGE_LOOP ( 'NONE', ( #126, #32 ) ) ;
#149 = DATE_TIME_ROLE ( 'creation_date' ) ;
#150 =( LENGTH_UNIT ( ) NAMED_UNIT ( * ) SI_UNIT ( .MILLI., .METRE. ) );
#151 = DIRECTION ( 'NONE',  ( 1.000000000000000000, 0.0000000000000000000, 0.0000000000000000000 ) ) ;
#152 = VERTEX_POINT ( 'NONE', #22 ) ;
#153 = LOCAL_TIME ( 9, 45, 22.00000000000000000, #198 ) ;
#154 = CARTESIAN_POINT ( 'NONE',  ( -24.11375381737204600, 25.69327870474624800, -8.435808788603463200 ) ) ;
#155 = CIRCLE ( 'NONE', #46, 25.39999999999999900 ) ;
#156 = CARTESIAN_POINT ( 'NONE',  ( 9.992007221626412800E-016, 4.884981308350691100E-015, -4.262490864747840100 ) ) ;
#157 = PRODUCT ( '112-0507 BK7 pl-cv 50.8 F-150', '112-0507 BK7 pl-cv 50.8 F-150', '', ( #11 ) ) ;
#158 = CARTESIAN_POINT ( 'NONE',  ( -8.886507872786305400, 8.897124612084846600, 1.511324869727805000 ) ) ;
#159 = CC_DESIGN_APPROVAL ( #211, ( #215 ) ) ;
#160 = DIRECTION ( 'NONE',  ( 1.000000000000000000, 0.0000000000000000000, 0.0000000000000000000 ) ) ;
#161 = CARTESIAN_POINT ( 'NONE',  ( 8.886507872786317800, 8.897124612084848400, 1.511324869727809700 ) ) ;
#162 = APPROVAL_DATE_TIME ( #101, #189 ) ;
#163 = DIRECTION ( 'NONE',  ( 0.0000000000000000000, 0.0000000000000000000, 1.000000000000000000 ) ) ;
#164 = CARTESIAN_POINT ( 'NONE',  ( 17.64899681258699000, -8.897124612084844800, 0.03186221289470243100 ) ) ;
#165 = DIRECTION ( 'NONE',  ( -0.0000000000000000000, -0.0000000000000000000, -1.000000000000000000 ) ) ;
#166 = ORIENTED_EDGE ( 'NONE', *, *, #226, .T. ) ;
#167 = CC_DESIGN_PERSON_AND_ORGANIZATION_ASSIGNMENT ( #172, #12, ( #125 ) ) ;
#168 = CARTESIAN_POINT ( 'NONE',  ( 2.131628207280299900E-014, 25.40000000000000900, -4.262490864747831200 ) ) ;
#169 = ADVANCED_FACE ( 'NONE', ( #42 ), #82, .T. ) ;
#170 = AXIS2_PLACEMENT_3D ( 'NONE', #2, #75, #185 ) ;
#171 = PERSON_AND_ORGANIZATION_ROLE ( 'design_supplier' ) ;
#172 = PERSON_AND_ORGANIZATION ( #209, #16 ) ;
#173 = CC_DESIGN_DATE_AND_TIME_ASSIGNMENT ( #31, #65, ( #125 ) ) ;
#174 = CYLINDRICAL_SURFACE ( 'NONE', #194, 25.39999999999999900 ) ;
#175 = VERTEX_POINT ( 'NONE', #168 ) ;
#176 = VERTEX_POINT ( 'NONE', #78 ) ;
#177 = CARTESIAN_POINT ( 'NONE',  ( -26.04289053720680500, 8.897124612084848400, -2.885768728962179200 ) ) ;
#178 = CC_DESIGN_PERSON_AND_ORGANIZATION_ASSIGNMENT ( #202, #121, ( #157 ) ) ;
#179 = CARTESIAN_POINT ( 'NONE',  ( 9.992007221626412800E-016, 4.884981308350691100E-015, -4.262490864747840100 ) ) ;
#180 = ORIENTED_EDGE ( 'NONE', *, *, #41, .F. ) ;
#181 = DIRECTION ( 'NONE',  ( 0.0000000000000000000, 0.0000000000000000000, 1.000000000000000000 ) ) ;
#182 = COORDINATED_UNIVERSAL_TIME_OFFSET ( 2, 0, .AHEAD. ) ;
#183 = CARTESIAN_POINT ( 'NONE',  ( 26.04289053720681900, -8.897124612084843100, -2.885768728962182700 ) ) ;
#184 = ORIENTED_EDGE ( 'NONE', *, *, #51, .T. ) ;
#185 = DIRECTION ( 'NONE',  ( 1.000000000000000000, 0.0000000000000000000, 0.0000000000000000000 ) ) ;
#186 = CARTESIAN_POINT ( 'NONE',  ( -6.938893903907227600E-015, -8.897124612084851900, 1.511324869727793000 ) ) ;
#187 = CARTESIAN_POINT ( 'NONE',  ( -16.34164086564378200, -25.69327870474624500, -5.734302434638292000 ) ) ;
#188 = FACE_OUTER_BOUND ( 'NONE', #9, .T. ) ;
#189 = APPROVAL ( #120, 'UNSPECIFIED' ) ;
#190 = ORIENTED_EDGE ( 'NONE', *, *, #107, .T. ) ;
#191 = CALENDAR_DATE ( 2019, 16, 1 ) ;
#192 =( BOUNDED_SURFACE ( )  B_SPLINE_SURFACE ( 3, 3, ( 
 ( #127, #129, #25, #146 ),
 ( #39, #161, #205, #59 ),
 ( #72, #7, #164, #183 ),
 ( #27, #76, #147, #98 ) ),
 .UNSPECIFIED., .F., .F., .F. ) 
 B_SPLINE_SURFACE_WITH_KNOTS ( ( 4, 4 ),
 ( 4, 4 ),
 ( 0.0000000000000000000, 1.000000000000000000 ),
 ( 0.0000000000000000000, 1.000000000000000000 ),
 .UNSPECIFIED. ) 
 GEOMETRIC_REPRESENTATION_ITEM ( )  RATIONAL_B_SPLINE_SURFACE ( (
 ( 1.000000000000000000, 0.9906960878400532500, 0.9906960878400532500, 1.000000000000000000),
 ( 0.9626060787417165500, 0.9536500763404728300, 0.9536500763404728300, 0.9626060787417165500),
 ( 0.9626060787417165500, 0.9536500763404728300, 0.9536500763404728300, 0.9626060787417165500),
 ( 1.000000000000000000, 0.9906960878400532500, 0.9906960878400532500, 1.000000000000000000) ) ) 
 REPRESENTATION_ITEM ( '' )  SURFACE ( )  );
#193 = EDGE_CURVE ( 'NONE', #77, #176, #30, .T. ) ;
#194 = AXIS2_PLACEMENT_3D ( 'NONE', #179, #89, #92 ) ;
#195 = FACE_OUTER_BOUND ( 'NONE', #3, .T. ) ;
#196 = LOCAL_TIME ( 9, 45, 22.00000000000000000, #182 ) ;
#197 = FACE_OUTER_BOUND ( 'NONE', #99, .T. ) ;
#198 = COORDINATED_UNIVERSAL_TIME_OFFSET ( 2, 0, .AHEAD. ) ;
#199 = DIRECTION ( 'NONE',  ( 1.000000000000000000, 0.0000000000000000000, -0.0000000000000000000 ) ) ;
#200 = CARTESIAN_POINT ( 'NONE',  ( 9.992007221626412800E-016, 4.884981308350691100E-015, 5.000000000000000900 ) ) ;
#201 = CARTESIAN_POINT ( 'NONE',  ( -8.228236525218317600, -25.69327870474624800, -4.364431519660557000 ) ) ;
#202 = PERSON_AND_ORGANIZATION ( #209, #16 ) ;
#203 = CARTESIAN_POINT ( 'NONE',  ( 9.992007221626412800E-016, 4.884981308350691100E-015, -4.262490864747840100 ) ) ;
#204 = LOCAL_TIME ( 9, 45, 22.00000000000000000, #44 ) ;
#205 = CARTESIAN_POINT ( 'NONE',  ( 17.64899681258699400, 8.897124612084848400, 0.03186221289472151300 ) ) ;
#206 = CIRCLE ( 'NONE', #119, 25.39999999999999900 ) ;
#207 = CC_DESIGN_PERSON_AND_ORGANIZATION_ASSIGNMENT ( #227, #171, ( #74 ) ) ;
#208 = SECURITY_CLASSIFICATION_LEVEL ( 'unclassified' ) ;
#209 = PERSON ( 'UNSPECIFIED', 'UNSPECIFIED', 'UNSPECIFIED', ('UNSPECIFIED'), ('UNSPECIFIED'), ('UNSPECIFIED') ) ;
#210 = ORIENTED_EDGE ( 'NONE', *, *, #193, .T. ) ;
#211 = APPROVAL ( #10, 'UNSPECIFIED' ) ;
#212 = APPROVAL_PERSON_ORGANIZATION ( #93, #211, #137 ) ;
#213 = VERTEX_POINT ( 'NONE', #117 ) ;
#214 = PLANE ( 'NONE',  #81 ) ;
#215 = PRODUCT_DEFINITION ( 'UNKNOWN', '', #74, #222 ) ;
#216 = EDGE_CURVE ( 'NONE', #152, #33, #231, .T. ) ;
#217 = DIRECTION ( 'NONE',  ( 1.000000000000000000, 0.0000000000000000000, 0.0000000000000000000 ) ) ;
#218 = DIRECTION ( 'NONE',  ( 0.0000000000000000000, 0.0000000000000000000, 1.000000000000000000 ) ) ;
#219 = AXIS2_PLACEMENT_3D ( 'NONE', #91, #160, #58 ) ;
#220 = CARTESIAN_POINT ( 'NONE',  ( 0.0000000000000000000, 0.0000000000000000000, 0.0000000000000000000 ) ) ;
#221 = VECTOR ( 'NONE', #4, 1000.000000000000000 ) ;
#222 = DESIGN_CONTEXT ( 'detailed design', #229, 'design' ) ;
#223 = ORIENTED_EDGE ( 'NONE', *, *, #29, .T. ) ;
#224 = PRODUCT_RELATED_PRODUCT_CATEGORY ( 'detail', '', ( #157 ) ) ;
#225 = APPROVAL_STATUS ( 'not_yet_approved' ) ;
#226 = EDGE_CURVE ( 'NONE', #33, #152, #155, .T. ) ;
#227 = PERSON_AND_ORGANIZATION ( #209, #16 ) ;
#228 =( NAMED_UNIT ( * ) PLANE_ANGLE_UNIT ( ) SI_UNIT ( $, .RADIAN. ) );
#229 = APPLICATION_CONTEXT ( 'configuration controlled 3d designs of mechanical parts and assemblies' ) ;
#230 = ORIENTED_EDGE ( 'NONE', *, *, #193, .F. ) ;
#231 = CIRCLE ( 'NONE', #71, 25.39999999999999900 ) ;
#232 = CALENDAR_DATE ( 2019, 16, 1 ) ;
#233 = CARTESIAN_POINT ( 'NONE',  ( 9.992007221626412800E-016, 4.884981308350691100E-015, -4.262490864747840100 ) ) ;
#234 = CARTESIAN_POINT ( 'NONE',  ( -26.04289053720680500, -8.897124612084851900, -2.885768728962193800 ) ) ;
#235 = DATE_AND_TIME ( #128, #96 ) ;
ENDSEC;
END-ISO-10303-21;
