ISO-10303-21;
HEADER;
FILE_DESCRIPTION (( 'STEP AP203' ),
    '1' );
FILE_NAME ('112-0506 BK7 pl-cv 50.8 F-125.STEP',
    '2019-01-16T07:35:46',
    ( '' ),
    ( '' ),
    'SwSTEP 2.0',
    'SolidWorks 2017',
    '' );
FILE_SCHEMA (( 'CONFIG_CONTROL_DESIGN' ));
ENDSEC;

DATA;
#1 = APPROVAL ( #137, 'UNSPECIFIED' ) ;
#2 = ORIENTED_EDGE ( 'NONE', *, *, #193, .F. ) ;
#3 = DIRECTION ( 'NONE',  ( 1.000000000000000000, 0.0000000000000000000, 0.0000000000000000000 ) ) ;
#4 = CARTESIAN_POINT ( 'NONE',  ( -1.724435820018685200E-014, 25.39999999999999900, -5.182095242960457400 ) ) ;
#5 = DIRECTION ( 'NONE',  ( 1.000000000000000000, 0.0000000000000000000, 0.0000000000000000000 ) ) ;
#6 = AXIS2_PLACEMENT_3D ( 'NONE', #23, #11, #57 ) ;
#7 = DIRECTION ( 'NONE',  ( 1.000000000000000000, 2.240790868895130200E-016, 1.936499352473490000E-016 ) ) ;
#8 = LINE ( 'NONE', #114, #201 ) ;
#9 =( LENGTH_UNIT ( ) NAMED_UNIT ( * ) SI_UNIT ( .MILLI., .METRE. ) );
#10 = CC_DESIGN_PERSON_AND_ORGANIZATION_ASSIGNMENT ( #69, #82, ( #116 ) ) ;
#11 = DIRECTION ( 'NONE',  ( 0.0000000000000000000, 0.0000000000000000000, 1.000000000000000000 ) ) ;
#12 = CALENDAR_DATE ( 2019, 16, 1 ) ;
#13 = CIRCLE ( 'NONE', #6, 25.39999999999999900 ) ;
#14 = CARTESIAN_POINT ( 'NONE',  ( -26.28090801566111900, -9.056655688120017100, -3.524353459888982500 ) ) ;
#15 = APPLICATION_PROTOCOL_DEFINITION ( 'international standard', 'config_control_design', 1994, #123 ) ;
#16 = ORIENTED_EDGE ( 'NONE', *, *, #160, .F. ) ;
#17 = APPROVAL_ROLE ( '' ) ;
#18 = AXIS2_PLACEMENT_3D ( 'NONE', #111, #148, #200 ) ;
#19 = ORIENTED_EDGE ( 'NONE', *, *, #64, .T. ) ;
#20 = SECURITY_CLASSIFICATION ( '', '', #155 ) ;
#21 = CC_DESIGN_PERSON_AND_ORGANIZATION_ASSIGNMENT ( #210, #125, ( #20 ) ) ;
#22 = CARTESIAN_POINT ( 'NONE',  ( -5.861140586199595100E-015, -25.39999999999999100, -5.182095242960461000 ) ) ;
#23 = CARTESIAN_POINT ( 'NONE',  ( 9.992007221626412800E-016, 4.884981308350691100E-015, -5.182095242960460100 ) ) ;
#24 = CARTESIAN_POINT ( 'NONE',  ( 26.28090801566111900, 9.056655688120038400, -3.524353459888963900 ) ) ;
#25 = PERSON_AND_ORGANIZATION ( #197, #126 ) ;
#26 = CARTESIAN_POINT ( 'NONE',  ( -9.066434285159340700, 9.056655688120029500, 1.870528679957781400 ) ) ;
#27 = CARTESIAN_POINT ( 'NONE',  ( 9.066434285159308700, -9.056655688120013500, 1.870528679957787800 ) ) ;
#28 = LOCAL_TIME ( 9, 35, 46.00000000000000000, #70 ) ;
#29 = PRODUCT_RELATED_PRODUCT_CATEGORY ( 'detail', '', ( #109 ) ) ;
#30 = CIRCLE ( 'NONE', #142, 64.84000000000000300 ) ;
#31 = DATE_AND_TIME ( #179, #49 ) ;
#32 = CC_DESIGN_DATE_AND_TIME_ASSIGNMENT ( #161, #157, ( #106 ) ) ;
#33 = LOCAL_TIME ( 9, 35, 46.00000000000000000, #110 ) ;
#34 = EDGE_CURVE ( 'NONE', #153, #41, #181, .T. ) ;
#35 = CALENDAR_DATE ( 2019, 16, 1 ) ;
#36 = CARTESIAN_POINT ( 'NONE',  ( 9.992007221626412800E-016, 4.884981308350691100E-015, -5.182095242960460100 ) ) ;
#37 = VECTOR ( 'NONE', #54, 1000.000000000000000 ) ;
#38 =( GEOMETRIC_REPRESENTATION_CONTEXT ( 3 ) GLOBAL_UNCERTAINTY_ASSIGNED_CONTEXT ( ( #83 ) ) GLOBAL_UNIT_ASSIGNED_CONTEXT ( ( #9, #187, #102 ) ) REPRESENTATION_CONTEXT ( 'NONE', 'WORKASPACE' ) );
#39 = DESIGN_CONTEXT ( 'detailed design', #228, 'design' ) ;
#40 = CARTESIAN_POINT ( 'NONE',  ( 25.39999999999999900, 4.884981308350691100E-015, -5.182095242960460100 ) ) ;
#41 = VERTEX_POINT ( 'NONE', #40 ) ;
#42 = CARTESIAN_POINT ( 'NONE',  ( -1.494789669605689300E-014, 9.056655688120029500, 1.870528679957789400 ) ) ;
#43 = DIRECTION ( 'NONE',  ( 0.0000000000000000000, 0.0000000000000000000, 1.000000000000000000 ) ) ;
#44 = CC_DESIGN_DATE_AND_TIME_ASSIGNMENT ( #173, #139, ( #20 ) ) ;
#45 = ORIENTED_EDGE ( 'NONE', *, *, #121, .F. ) ;
#46 = CARTESIAN_POINT ( 'NONE',  ( 0.0000000000000000000, 0.0000000000000000000, 0.0000000000000000000 ) ) ;
#47 = EDGE_LOOP ( 'NONE', ( #16, #50 ) ) ;
#48 = CC_DESIGN_APPROVAL ( #1, ( #106 ) ) ;
#49 = LOCAL_TIME ( 9, 35, 46.00000000000000000, #145 ) ;
#50 = ORIENTED_EDGE ( 'NONE', *, *, #64, .F. ) ;
#51 = VERTEX_POINT ( 'NONE', #182 ) ;
#52 = CC_DESIGN_APPROVAL ( #53, ( #20 ) ) ;
#53 = APPROVAL ( #138, 'UNSPECIFIED' ) ;
#54 = DIRECTION ( 'NONE',  ( 0.0000000000000000000, 0.0000000000000000000, 1.000000000000000000 ) ) ;
#55 = ORIENTED_EDGE ( 'NONE', *, *, #149, .T. ) ;
#56 = PRODUCT_DEFINITION_SHAPE ( 'NONE', 'NONE',  #106 ) ;
#57 = DIRECTION ( 'NONE',  ( 1.000000000000000000, 0.0000000000000000000, 0.0000000000000000000 ) ) ;
#58 = ADVANCED_FACE ( 'NONE', ( #88 ), #221, .T. ) ;
#59 = CARTESIAN_POINT ( 'NONE',  ( 23.45388872502617900, -25.68786093815446500, -10.12003559854841900 ) ) ;
#60 = CARTESIAN_POINT ( 'NONE',  ( -8.091164153467323300, 25.68786093815448300, -5.305477238647180900 ) ) ;
#61 = CARTESIAN_POINT ( 'NONE',  ( 8.091164153467289600, 25.68786093815448600, -5.305477238647172900 ) ) ;
#62 = DIRECTION ( 'NONE',  ( 0.0000000000000000000, 0.0000000000000000000, 1.000000000000000000 ) ) ;
#63 = APPROVAL_PERSON_ORGANIZATION ( #127, #53, #17 ) ;
#64 = EDGE_CURVE ( 'NONE', #51, #107, #87, .T. ) ;
#65 = PERSON_AND_ORGANIZATION_ROLE ( 'creator' ) ;
#66 = ORIENTED_EDGE ( 'NONE', *, *, #193, .T. ) ;
#67 = APPLICATION_PROTOCOL_DEFINITION ( 'international standard', 'config_control_design', 1994, #228 ) ;
#68 = CC_DESIGN_PERSON_AND_ORGANIZATION_ASSIGNMENT ( #230, #213, ( #106 ) ) ;
#69 = PERSON_AND_ORGANIZATION ( #197, #126 ) ;
#70 = COORDINATED_UNIVERSAL_TIME_OFFSET ( 2, 0, .AHEAD. ) ;
#71 = CARTESIAN_POINT ( 'NONE',  ( -25.39999999999999900, 7.995584178184967200E-015, -5.182095242960460100 ) ) ;
#72 = ORIENTED_EDGE ( 'NONE', *, *, #168, .T. ) ;
#73 = AXIS2_PLACEMENT_3D ( 'NONE', #100, #43, #97 ) ;
#74 = DIRECTION ( 'NONE',  ( 0.0000000000000000000, 0.0000000000000000000, 1.000000000000000000 ) ) ;
#75 = DIRECTION ( 'NONE',  ( 0.0000000000000000000, 0.0000000000000000000, 1.000000000000000000 ) ) ;
#76 = APPROVAL_DATE_TIME ( #196, #1 ) ;
#77 = CARTESIAN_POINT ( 'NONE',  ( -23.45388872502617500, -25.68786093815447600, -10.12003559854843200 ) ) ;
#78 = CARTESIAN_POINT ( 'NONE',  ( -26.28090801566112200, 9.056655688120024200, -3.524353459888973600 ) ) ;
#79 = CARTESIAN_POINT ( 'NONE',  ( 17.94767650021384900, 9.056655688120031300, 0.04740845225871190300 ) ) ;
#80 = PERSON_AND_ORGANIZATION ( #197, #126 ) ;
#81 = FACE_OUTER_BOUND ( 'NONE', #115, .T. ) ;
#82 = PERSON_AND_ORGANIZATION_ROLE ( 'design_supplier' ) ;
#83 = UNCERTAINTY_MEASURE_WITH_UNIT (LENGTH_MEASURE( 1.000000000000000100E-005 ), #9, 'distance_accuracy_value', 'NONE');
#84 = DIRECTION ( 'NONE',  ( 1.000000000000000000, 0.0000000000000000000, 0.0000000000000000000 ) ) ;
#85 = LINE ( 'NONE', #93, #37 ) ;
#86 = CALENDAR_DATE ( 2019, 16, 1 ) ;
#87 = CIRCLE ( 'NONE', #18, 25.39999999999999900 ) ;
#88 = FACE_OUTER_BOUND ( 'NONE', #47, .T. ) ;
#89 = SHAPE_DEFINITION_REPRESENTATION ( #56, #108 ) ;
#90 = ORIENTED_EDGE ( 'NONE', *, *, #160, .T. ) ;
#91 = AXIS2_PLACEMENT_3D ( 'NONE', #184, #202, #130 ) ;
#92 = DIRECTION ( 'NONE',  ( 1.000000000000000000, 0.0000000000000000000, 0.0000000000000000000 ) ) ;
#93 = CARTESIAN_POINT ( 'NONE',  ( -25.39999999999999900, 7.995584178184967200E-015, -5.182095242960460100 ) ) ;
#94 = EDGE_CURVE ( 'NONE', #143, #153, #30, .T. ) ;
#95 = CARTESIAN_POINT ( 'NONE',  ( 23.45388872502615700, 25.68786093815449000, -10.12003559854841800 ) ) ;
#96 = CARTESIAN_POINT ( 'NONE',  ( -2.775557561562891400E-014, 25.68786093815448600, -5.305477238647179100 ) ) ;
#97 = DIRECTION ( 'NONE',  ( 1.000000000000000000, 0.0000000000000000000, 0.0000000000000000000 ) ) ;
#98 = ORIENTED_EDGE ( 'NONE', *, *, #149, .F. ) ;
#99 = CARTESIAN_POINT ( 'NONE',  ( -1.088908242232359900E-014, -9.056655688120015300, 1.870528679957785600 ) ) ;
#100 = CARTESIAN_POINT ( 'NONE',  ( 9.992007221626412800E-016, 4.884981308350691100E-015, -5.182095242960460100 ) ) ;
#101 =( BOUNDED_SURFACE ( )  B_SPLINE_SURFACE ( 3, 3, ( 
 ( #209, #61, #207, #95 ),
 ( #42, #225, #79, #24 ),
 ( #99, #27, #208, #226 ),
 ( #132, #122, #167, #59 ) ),
 .UNSPECIFIED., .F., .F., .F. ) 
 B_SPLINE_SURFACE_WITH_KNOTS ( ( 4, 4 ),
 ( 4, 4 ),
 ( 0.0000000000000000000, 1.000000000000000000 ),
 ( 0.0000000000000000000, 1.000000000000000000 ),
 .UNSPECIFIED. ) 
 GEOMETRIC_REPRESENTATION_ITEM ( )  RATIONAL_B_SPLINE_SURFACE ( (
 ( 1.000000000000000000, 0.9863825870031455200, 0.9863825870031455200, 1.000000000000000000),
 ( 0.9454505733225665500, 0.9325759823975202600, 0.9325759823975202600, 0.9454505733225665500),
 ( 0.9454505733225665500, 0.9325759823975202600, 0.9325759823975202600, 0.9454505733225665500),
 ( 1.000000000000000000, 0.9863825870031455200, 0.9863825870031455200, 1.000000000000000000) ) ) 
 REPRESENTATION_ITEM ( '' )  SURFACE ( )  );
#102 =( NAMED_UNIT ( * ) SI_UNIT ( $, .STERADIAN. ) SOLID_ANGLE_UNIT ( ) );
#103 = EDGE_LOOP ( 'NONE', ( #2, #211, #185 ) ) ;
#104 = LOCAL_TIME ( 9, 35, 46.00000000000000000, #152 ) ;
#105 = EDGE_LOOP ( 'NONE', ( #183, #66, #231, #19, #98 ) ) ;
#106 = PRODUCT_DEFINITION ( 'UNKNOWN', '', #116, #39 ) ;
#107 = VERTEX_POINT ( 'NONE', #198 ) ;
#108 = ADVANCED_BREP_SHAPE_REPRESENTATION ( '112-0506 BK7 pl-cv 50.8 F-125', ( #177, #234 ), #38 ) ;
#109 = PRODUCT ( '112-0506 BK7 pl-cv 50.8 F-125', '112-0506 BK7 pl-cv 50.8 F-125', '', ( #176 ) ) ;
#110 = COORDINATED_UNIVERSAL_TIME_OFFSET ( 2, 0, .AHEAD. ) ;
#111 = CARTESIAN_POINT ( 'NONE',  ( 9.992007221626412800E-016, 4.884981308350691100E-015, 4.999999999999999100 ) ) ;
#112 = CARTESIAN_POINT ( 'NONE',  ( -23.45388872502617900, 25.68786093815448300, -10.12003559854842500 ) ) ;
#113 = APPROVAL_PERSON_ORGANIZATION ( #129, #1, #229 ) ;
#114 = CARTESIAN_POINT ( 'NONE',  ( 25.39999999999999900, 4.884981308350691100E-015, -5.182095242960460100 ) ) ;
#115 = EDGE_LOOP ( 'NONE', ( #192, #45, #235 ) ) ;
#116 = PRODUCT_DEFINITION_FORMATION_WITH_SPECIFIED_SOURCE ( 'ANY', '', #109, .NOT_KNOWN. ) ;
#117 = CARTESIAN_POINT ( 'NONE',  ( 0.0000000000000000000, 0.0000000000000000000, -64.84000000000000300 ) ) ;
#118 = CARTESIAN_POINT ( 'NONE',  ( -8.091164153467323300, -25.68786093815447600, -5.305477238647185300 ) ) ;
#119 = CARTESIAN_POINT ( 'NONE',  ( -17.94767650021387000, -9.056655688120020600, 0.04740845225868891400 ) ) ;
#120 = CARTESIAN_POINT ( 'NONE',  ( 9.992007221626412800E-016, 4.884981308350691100E-015, 4.999999999999999100 ) ) ;
#121 = EDGE_CURVE ( 'NONE', #41, #143, #195, .T. ) ;
#122 = CARTESIAN_POINT ( 'NONE',  ( 8.091164153467305600, -25.68786093815446500, -5.305477238647172900 ) ) ;
#123 = APPLICATION_CONTEXT ( 'configuration controlled 3d designs of mechanical parts and assemblies' ) ;
#124 = EDGE_CURVE ( 'NONE', #140, #51, #85, .T. ) ;
#125 = PERSON_AND_ORGANIZATION_ROLE ( 'classification_officer' ) ;
#126 = ORGANIZATION ( 'UNSPECIFIED', 'UNSPECIFIED', '' ) ;
#127 = PERSON_AND_ORGANIZATION ( #197, #126 ) ;
#128 = AXIS2_PLACEMENT_3D ( 'NONE', #36, #162, #92 ) ;
#129 = PERSON_AND_ORGANIZATION ( #197, #126 ) ;
#130 = DIRECTION ( 'NONE',  ( 1.000000000000000000, 0.0000000000000000000, -0.0000000000000000000 ) ) ;
#131 = CIRCLE ( 'NONE', #204, 25.39999999999999900 ) ;
#132 = CARTESIAN_POINT ( 'NONE',  ( -5.772744054551359100E-015, -25.68786093815447200, -5.305477238647174700 ) ) ;
#133 = FACE_OUTER_BOUND ( 'NONE', #105, .T. ) ;
#134 = DIRECTION ( 'NONE',  ( 0.0000000000000000000, 0.0000000000000000000, 1.000000000000000000 ) ) ;
#135 = CYLINDRICAL_SURFACE ( 'NONE', #73, 25.39999999999999900 ) ;
#136 = CARTESIAN_POINT ( 'NONE',  ( -9.066434285159333600, -9.056655688120018900, 1.870528679957772900 ) ) ;
#137 = APPROVAL_STATUS ( 'not_yet_approved' ) ;
#138 = APPROVAL_STATUS ( 'not_yet_approved' ) ;
#139 = DATE_TIME_ROLE ( 'classification_date' ) ;
#140 = VERTEX_POINT ( 'NONE', #71 ) ;
#141 = PERSON_AND_ORGANIZATION ( #197, #126 ) ;
#142 = AXIS2_PLACEMENT_3D ( 'NONE', #117, #7, #166 ) ;
#143 = VERTEX_POINT ( 'NONE', #4 ) ;
#144 = APPROVAL ( #191, 'UNSPECIFIED' ) ;
#145 = COORDINATED_UNIVERSAL_TIME_OFFSET ( 2, 0, .AHEAD. ) ;
#146 = CYLINDRICAL_SURFACE ( 'NONE', #189, 25.39999999999999900 ) ;
#147 = ADVANCED_FACE ( 'NONE', ( #133 ), #146, .T. ) ;
#148 = DIRECTION ( 'NONE',  ( -0.0000000000000000000, -0.0000000000000000000, -1.000000000000000000 ) ) ;
#149 = EDGE_CURVE ( 'NONE', #41, #107, #8, .T. ) ;
#150 = CLOSED_SHELL ( 'NONE', ( #165, #147, #169, #218, #58 ) ) ;
#151 = CARTESIAN_POINT ( 'NONE',  ( -16.01705722107996600, 25.68786093815448300, -6.932485671054385200 ) ) ;
#152 = COORDINATED_UNIVERSAL_TIME_OFFSET ( 2, 0, .AHEAD. ) ;
#153 = VERTEX_POINT ( 'NONE', #22 ) ;
#154 = CARTESIAN_POINT ( 'NONE',  ( -2.081668171172168500E-014, -25.68786093815447200, -5.305477238647181800 ) ) ;
#155 = SECURITY_CLASSIFICATION_LEVEL ( 'unclassified' ) ;
#156 = EDGE_LOOP ( 'NONE', ( #175, #72, #215, #55, #90 ) ) ;
#157 = DATE_TIME_ROLE ( 'creation_date' ) ;
#158 = APPROVAL_DATE_TIME ( #31, #144 ) ;
#159 = CALENDAR_DATE ( 2019, 16, 1 ) ;
#160 = EDGE_CURVE ( 'NONE', #107, #51, #227, .T. ) ;
#161 = DATE_AND_TIME ( #12, #104 ) ;
#162 = DIRECTION ( 'NONE',  ( 0.0000000000000000000, 0.0000000000000000000, 1.000000000000000000 ) ) ;
#163 = AXIS2_PLACEMENT_3D ( 'NONE', #219, #75, #3 ) ;
#164 = APPROVAL_DATE_TIME ( #214, #53 ) ;
#165 = ADVANCED_FACE ( 'NONE', ( #180 ), #190, .F. ) ;
#166 = DIRECTION ( 'NONE',  ( -2.240790868895131200E-016, 1.000000000000000000, 4.280625480510319500E-016 ) ) ;
#167 = CARTESIAN_POINT ( 'NONE',  ( 16.01705722107995200, -25.68786093815446500, -6.932485671054371000 ) ) ;
#168 = EDGE_CURVE ( 'NONE', #140, #153, #131, .T. ) ;
#169 = ADVANCED_FACE ( 'NONE', ( #81 ), #101, .F. ) ;
#170 = CARTESIAN_POINT ( 'NONE',  ( -17.94767650021387700, 9.056655688120027700, 0.04740845225869715800 ) ) ;
#171 = DIRECTION ( 'NONE',  ( 1.000000000000000000, 0.0000000000000000000, 0.0000000000000000000 ) ) ;
#172 = CARTESIAN_POINT ( 'NONE',  ( 9.992007221626412800E-016, 4.884981308350691100E-015, -5.182095242960460100 ) ) ;
#173 = DATE_AND_TIME ( #159, #216 ) ;
#174 = CARTESIAN_POINT ( 'NONE',  ( -16.01705722107996300, -25.68786093815447600, -6.932485671054390500 ) ) ;
#175 = ORIENTED_EDGE ( 'NONE', *, *, #124, .F. ) ;
#176 = MECHANICAL_CONTEXT ( 'NONE', #123, 'mechanical' ) ;
#177 = MANIFOLD_SOLID_BREP ( 'Imported1', #150 ) ;
#178 = FACE_OUTER_BOUND ( 'NONE', #156, .T. ) ;
#179 = CALENDAR_DATE ( 2019, 16, 1 ) ;
#180 = FACE_OUTER_BOUND ( 'NONE', #103, .T. ) ;
#181 = CIRCLE ( 'NONE', #163, 25.39999999999999900 ) ;
#182 = CARTESIAN_POINT ( 'NONE',  ( -25.39999999999999900, 7.995584178184967200E-015, 4.999999999999999100 ) ) ;
#183 = ORIENTED_EDGE ( 'NONE', *, *, #121, .T. ) ;
#184 = CARTESIAN_POINT ( 'NONE',  ( 0.0000000000000000000, 52.02000000000000300, 5.000000000000000000 ) ) ;
#185 = ORIENTED_EDGE ( 'NONE', *, *, #168, .F. ) ;
#186 = CARTESIAN_POINT ( 'NONE',  ( -2.428612866367529900E-014, -9.056655688120013500, 1.870528679957776500 ) ) ;
#187 =( NAMED_UNIT ( * ) PLANE_ANGLE_UNIT ( ) SI_UNIT ( $, .RADIAN. ) );
#188 = DIRECTION ( 'NONE',  ( -0.0000000000000000000, -0.0000000000000000000, -1.000000000000000000 ) ) ;
#189 = AXIS2_PLACEMENT_3D ( 'NONE', #224, #222, #5 ) ;
#190 =( BOUNDED_SURFACE ( )  B_SPLINE_SURFACE ( 3, 3, ( 
 ( #112, #151, #60, #96 ),
 ( #78, #170, #26, #205 ),
 ( #14, #119, #136, #186 ),
 ( #77, #174, #118, #154 ) ),
 .UNSPECIFIED., .F., .F., .F. ) 
 B_SPLINE_SURFACE_WITH_KNOTS ( ( 4, 4 ),
 ( 4, 4 ),
 ( 0.0000000000000000000, 1.000000000000000000 ),
 ( 0.0000000000000000000, 1.000000000000000000 ),
 .UNSPECIFIED. ) 
 GEOMETRIC_REPRESENTATION_ITEM ( )  RATIONAL_B_SPLINE_SURFACE ( (
 ( 1.000000000000000000, 0.9863825870031456300, 0.9863825870031456300, 1.000000000000000000),
 ( 0.9454505733225665500, 0.9325759823975203800, 0.9325759823975203800, 0.9454505733225665500),
 ( 0.9454505733225665500, 0.9325759823975203800, 0.9325759823975203800, 0.9454505733225665500),
 ( 1.000000000000000000, 0.9863825870031456300, 0.9863825870031456300, 1.000000000000000000) ) ) 
 REPRESENTATION_ITEM ( '' )  SURFACE ( )  );
#191 = APPROVAL_STATUS ( 'not_yet_approved' ) ;
#192 = ORIENTED_EDGE ( 'NONE', *, *, #94, .F. ) ;
#193 = EDGE_CURVE ( 'NONE', #143, #140, #13, .T. ) ;
#194 = APPROVAL_PERSON_ORGANIZATION ( #80, #144, #212 ) ;
#195 = CIRCLE ( 'NONE', #128, 25.39999999999999900 ) ;
#196 = DATE_AND_TIME ( #86, #33 ) ;
#197 = PERSON ( 'UNSPECIFIED', 'UNSPECIFIED', 'UNSPECIFIED', ('UNSPECIFIED'), ('UNSPECIFIED'), ('UNSPECIFIED') ) ;
#198 = CARTESIAN_POINT ( 'NONE',  ( 25.39999999999999900, 4.884981308350691100E-015, 4.999999999999999100 ) ) ;
#199 = AXIS2_PLACEMENT_3D ( 'NONE', #120, #188, #203 ) ;
#200 = DIRECTION ( 'NONE',  ( 1.000000000000000000, 0.0000000000000000000, 0.0000000000000000000 ) ) ;
#201 = VECTOR ( 'NONE', #74, 1000.000000000000000 ) ;
#202 = DIRECTION ( 'NONE',  ( 0.0000000000000000000, 0.0000000000000000000, 1.000000000000000000 ) ) ;
#203 = DIRECTION ( 'NONE',  ( 1.000000000000000000, 0.0000000000000000000, 0.0000000000000000000 ) ) ;
#204 = AXIS2_PLACEMENT_3D ( 'NONE', #172, #134, #171 ) ;
#205 = CARTESIAN_POINT ( 'NONE',  ( -3.122502256758252800E-014, 9.056655688120031300, 1.870528679957785200 ) ) ;
#206 = CC_DESIGN_SECURITY_CLASSIFICATION ( #20, ( #116 ) ) ;
#207 = CARTESIAN_POINT ( 'NONE',  ( 16.01705722107993400, 25.68786093815448600, -6.932485671054371000 ) ) ;
#208 = CARTESIAN_POINT ( 'NONE',  ( 17.94767650021385200, -9.056655688120008200, 0.04740845225870756600 ) ) ;
#209 = CARTESIAN_POINT ( 'NONE',  ( -1.728496890088424800E-014, 25.68786093815448600, -5.305477238647174700 ) ) ;
#210 = PERSON_AND_ORGANIZATION ( #197, #126 ) ;
#211 = ORIENTED_EDGE ( 'NONE', *, *, #94, .T. ) ;
#212 = APPROVAL_ROLE ( '' ) ;
#213 = PERSON_AND_ORGANIZATION_ROLE ( 'creator' ) ;
#214 = DATE_AND_TIME ( #35, #28 ) ;
#215 = ORIENTED_EDGE ( 'NONE', *, *, #34, .T. ) ;
#216 = LOCAL_TIME ( 9, 35, 46.00000000000000000, #220 ) ;
#217 = CC_DESIGN_APPROVAL ( #144, ( #116 ) ) ;
#218 = ADVANCED_FACE ( 'NONE', ( #178 ), #135, .T. ) ;
#219 = CARTESIAN_POINT ( 'NONE',  ( 9.992007221626412800E-016, 4.884981308350691100E-015, -5.182095242960460100 ) ) ;
#220 = COORDINATED_UNIVERSAL_TIME_OFFSET ( 2, 0, .AHEAD. ) ;
#221 = PLANE ( 'NONE',  #91 ) ;
#222 = DIRECTION ( 'NONE',  ( 0.0000000000000000000, 0.0000000000000000000, 1.000000000000000000 ) ) ;
#223 = CC_DESIGN_PERSON_AND_ORGANIZATION_ASSIGNMENT ( #25, #232, ( #109 ) ) ;
#224 = CARTESIAN_POINT ( 'NONE',  ( 9.992007221626412800E-016, 4.884981308350691100E-015, -5.182095242960460100 ) ) ;
#225 = CARTESIAN_POINT ( 'NONE',  ( 9.066434285159308700, 9.056655688120029500, 1.870528679957791200 ) ) ;
#226 = CARTESIAN_POINT ( 'NONE',  ( 26.28090801566111900, -9.056655688120008200, -3.524353459888967900 ) ) ;
#227 = CIRCLE ( 'NONE', #199, 25.39999999999999900 ) ;
#228 = APPLICATION_CONTEXT ( 'configuration controlled 3d designs of mechanical parts and assemblies' ) ;
#229 = APPROVAL_ROLE ( '' ) ;
#230 = PERSON_AND_ORGANIZATION ( #197, #126 ) ;
#231 = ORIENTED_EDGE ( 'NONE', *, *, #124, .T. ) ;
#232 = PERSON_AND_ORGANIZATION_ROLE ( 'design_owner' ) ;
#233 = CC_DESIGN_PERSON_AND_ORGANIZATION_ASSIGNMENT ( #141, #65, ( #116 ) ) ;
#234 = AXIS2_PLACEMENT_3D ( 'NONE', #46, #62, #84 ) ;
#235 = ORIENTED_EDGE ( 'NONE', *, *, #34, .F. ) ;
ENDSEC;
END-ISO-10303-21;
