ISO-10303-21;
HEADER;
FILE_DESCRIPTION (( 'STEP AP203' ),
    '1' );
FILE_NAME ('112-0505 BK7 pl-cv 50.8 F-100.STEP',
    '2019-01-16T07:20:44',
    ( '' ),
    ( '' ),
    'SwSTEP 2.0',
    'SolidWorks 2017',
    '' );
FILE_SCHEMA (( 'CONFIG_CONTROL_DESIGN' ));
ENDSEC;

DATA;
#1 = DIRECTION ( 'NONE',  ( 1.000000000000000000, -2.801096586449980200E-016, -5.251699512849379800E-016 ) ) ;
#2 = CARTESIAN_POINT ( 'NONE',  ( -6.938893903907228400E-015, -9.378952491840292900, 2.484311232252697500 ) ) ;
#3 = FACE_OUTER_BOUND ( 'NONE', #35, .T. ) ;
#4 = ORIENTED_EDGE ( 'NONE', *, *, #22, .F. ) ;
#5 = CC_DESIGN_PERSON_AND_ORGANIZATION_ASSIGNMENT ( #227, #89, ( #185 ) ) ;
#6 = APPROVAL_PERSON_ORGANIZATION ( #120, #165, #68 ) ;
#7 = DIRECTION ( 'NONE',  ( 1.000000000000000000, 0.0000000000000000000, 0.0000000000000000000 ) ) ;
#8 = EDGE_CURVE ( 'NONE', #222, #24, #28, .T. ) ;
#9 = UNCERTAINTY_MEASURE_WITH_UNIT (LENGTH_MEASURE( 1.000000000000000100E-005 ), #126, 'distance_accuracy_value', 'NONE');
#10 = COORDINATED_UNIVERSAL_TIME_OFFSET ( 2, 0, .AHEAD. ) ;
#11 = VERTEX_POINT ( 'NONE', #181 ) ;
#12 = DATE_AND_TIME ( #63, #44 ) ;
#13 = CARTESIAN_POINT ( 'NONE',  ( -1.387778780781445700E-014, -25.67723730754860200, -6.801425757498877900 ) ) ;
#14 = MECHANICAL_CONTEXT ( 'NONE', #55, 'mechanical' ) ;
#15 = AXIS2_PLACEMENT_3D ( 'NONE', #220, #33, #112 ) ;
#16 = DATE_TIME_ROLE ( 'creation_date' ) ;
#17 = CARTESIAN_POINT ( 'NONE',  ( 15.38317121271092300, 25.67723730754857000, -8.792242544147953300 ) ) ;
#18 = CARTESIAN_POINT ( 'NONE',  ( 26.76191574876696300, 9.378952491840273400, -4.560476487408061000 ) ) ;
#19 = APPROVAL ( #109, 'UNSPECIFIED' ) ;
#20 = CARTESIAN_POINT ( 'NONE',  ( 15.38317121271091600, -25.67723730754860900, -8.792242544147940800 ) ) ;
#21 = ORIENTED_EDGE ( 'NONE', *, *, #22, .T. ) ;
#22 = EDGE_CURVE ( 'NONE', #158, #24, #119, .T. ) ;
#23 = CARTESIAN_POINT ( 'NONE',  ( 9.992007221626412800E-016, 4.884981308350691100E-015, -6.644598951474179700 ) ) ;
#24 = VERTEX_POINT ( 'NONE', #78 ) ;
#25 = CARTESIAN_POINT ( 'NONE',  ( -18.55265425827938200, 9.378952491840280500, 0.08331503819358158900 ) ) ;
#26 =( BOUNDED_SURFACE ( )  B_SPLINE_SURFACE ( 3, 3, ( 
 ( #127, #76, #17, #57 ),
 ( #77, #34, #128, #18 ),
 ( #203, #95, #217, #148 ),
 ( #234, #130, #20, #204 ) ),
 .UNSPECIFIED., .F., .F., .F. ) 
 B_SPLINE_SURFACE_WITH_KNOTS ( ( 4, 4 ),
 ( 4, 4 ),
 ( 0.0000000000000000000, 1.000000000000000000 ),
 ( 0.0000000000000000000, 1.000000000000000000 ),
 .UNSPECIFIED. ) 
 GEOMETRIC_REPRESENTATION_ITEM ( )  RATIONAL_B_SPLINE_SURFACE ( (
 ( 1.000000000000000000, 0.9780367744982881900, 0.9780367744982881900, 1.000000000000000000),
 ( 0.9125836931109968500, 0.8925404116700150800, 0.8925404116700150800, 0.9125836931109968500),
 ( 0.9125836931109968500, 0.8925404116700150800, 0.8925404116700150800, 0.9125836931109968500),
 ( 1.000000000000000000, 0.9780367744982881900, 0.9780367744982881900, 1.000000000000000000) ) ) 
 REPRESENTATION_ITEM ( '' )  SURFACE ( )  );
#27 = AXIS2_PLACEMENT_3D ( 'NONE', #132, #149, #178 ) ;
#28 = CIRCLE ( 'NONE', #80, 51.86999999999999700 ) ;
#29 = DIRECTION ( 'NONE',  ( 1.000000000000000000, 0.0000000000000000000, 0.0000000000000000000 ) ) ;
#30 = APPLICATION_CONTEXT ( 'configuration controlled 3d designs of mechanical parts and assemblies' ) ;
#31 = CARTESIAN_POINT ( 'NONE',  ( 0.0000000000000000000, 0.0000000000000000000, 0.0000000000000000000 ) ) ;
#32 = APPROVAL_STATUS ( 'not_yet_approved' ) ;
#33 = DIRECTION ( 'NONE',  ( 0.0000000000000000000, 0.0000000000000000000, 1.000000000000000000 ) ) ;
#34 = CARTESIAN_POINT ( 'NONE',  ( 9.431689877877232700, 9.378952491840273400, 2.484311232252689000 ) ) ;
#35 = EDGE_LOOP ( 'NONE', ( #146, #233, #174, #69, #182 ) ) ;
#36 = PERSON_AND_ORGANIZATION ( #167, #42 ) ;
#37 = EDGE_LOOP ( 'NONE', ( #171, #137, #43 ) ) ;
#38 = DIRECTION ( 'NONE',  ( 1.000000000000000000, 0.0000000000000000000, 0.0000000000000000000 ) ) ;
#39 = DIRECTION ( 'NONE',  ( 0.0000000000000000000, 0.0000000000000000000, 1.000000000000000000 ) ) ;
#40 = AXIS2_PLACEMENT_3D ( 'NONE', #23, #154, #38 ) ;
#41 = DATE_AND_TIME ( #186, #194 ) ;
#42 = ORGANIZATION ( 'UNSPECIFIED', 'UNSPECIFIED', '' ) ;
#43 = ORIENTED_EDGE ( 'NONE', *, *, #47, .F. ) ;
#44 = LOCAL_TIME ( 9, 20, 44.00000000000000000, #108 ) ;
#45 = LOCAL_TIME ( 9, 20, 44.00000000000000000, #67 ) ;
#46 = DIRECTION ( 'NONE',  ( 0.0000000000000000000, 0.0000000000000000000, 1.000000000000000000 ) ) ;
#47 = EDGE_CURVE ( 'NONE', #24, #110, #208, .T. ) ;
#48 = LOCAL_TIME ( 9, 20, 44.00000000000000000, #92 ) ;
#49 = APPROVAL_ROLE ( '' ) ;
#50 = ADVANCED_FACE ( 'NONE', ( #139 ), #26, .F. ) ;
#51 = CARTESIAN_POINT ( 'NONE',  ( 9.992007221626412800E-016, 4.884981308350691100E-015, 3.500000000000000400 ) ) ;
#52 =( NAMED_UNIT ( * ) SI_UNIT ( $, .STERADIAN. ) SOLID_ANGLE_UNIT ( ) );
#53 = PLANE ( 'NONE',  #97 ) ;
#54 = DESIGN_CONTEXT ( 'detailed design', #30, 'design' ) ;
#55 = APPLICATION_CONTEXT ( 'configuration controlled 3d designs of mechanical parts and assemblies' ) ;
#56 = FACE_OUTER_BOUND ( 'NONE', #211, .T. ) ;
#57 = CARTESIAN_POINT ( 'NONE',  ( 22.18998565985280200, 25.67723730754857000, -12.64270184339276800 ) ) ;
#58 = PERSON_AND_ORGANIZATION ( #167, #42 ) ;
#59 = CARTESIAN_POINT ( 'NONE',  ( -3.469446951953614200E-015, 25.67723730754857300, -6.801425757498885000 ) ) ;
#60 = APPROVAL ( #32, 'UNSPECIFIED' ) ;
#61 = EDGE_CURVE ( 'NONE', #110, #222, #232, .T. ) ;
#62 = CARTESIAN_POINT ( 'NONE',  ( 9.992007221626412800E-016, 4.884981308350691100E-015, 3.500000000000000400 ) ) ;
#63 = CALENDAR_DATE ( 2019, 16, 1 ) ;
#64 = CALENDAR_DATE ( 2019, 16, 1 ) ;
#65 = ORIENTED_EDGE ( 'NONE', *, *, #47, .T. ) ;
#66 = CARTESIAN_POINT ( 'NONE',  ( 0.0000000000000000000, 9.378952491840273400, 2.484311232252697500 ) ) ;
#67 = COORDINATED_UNIVERSAL_TIME_OFFSET ( 2, 0, .AHEAD. ) ;
#68 = APPROVAL_ROLE ( '' ) ;
#69 = ORIENTED_EDGE ( 'NONE', *, *, #180, .T. ) ;
#70 = CYLINDRICAL_SURFACE ( 'NONE', #102, 25.39999999999999900 ) ;
#71 = DIRECTION ( 'NONE',  ( 1.000000000000000000, 0.0000000000000000000, 0.0000000000000000000 ) ) ;
#72 = CARTESIAN_POINT ( 'NONE',  ( -7.820406621970535700, -25.67723730754860200, -6.801425757498877000 ) ) ;
#73 = CC_DESIGN_APPROVAL ( #60, ( #185 ) ) ;
#74 = DIRECTION ( 'NONE',  ( 1.000000000000000000, 0.0000000000000000000, 0.0000000000000000000 ) ) ;
#75 = PERSON_AND_ORGANIZATION_ROLE ( 'classification_officer' ) ;
#76 = CARTESIAN_POINT ( 'NONE',  ( 7.820406621970533900, 25.67723730754857300, -6.801425757498893900 ) ) ;
#77 = CARTESIAN_POINT ( 'NONE',  ( 1.696153144770354500E-014, 9.378952491840276900, 2.484311232252694800 ) ) ;
#78 = CARTESIAN_POINT ( 'NONE',  ( 2.425381620711143200E-015, -25.40000000000000600, -6.644598951474178800 ) ) ;
#79 = CIRCLE ( 'NONE', #168, 25.39999999999999900 ) ;
#80 = AXIS2_PLACEMENT_3D ( 'NONE', #166, #1, #183 ) ;
#81 = CC_DESIGN_PERSON_AND_ORGANIZATION_ASSIGNMENT ( #58, #75, ( #141 ) ) ;
#82 = DIRECTION ( 'NONE',  ( 1.000000000000000000, 0.0000000000000000000, 0.0000000000000000000 ) ) ;
#83 = AXIS2_PLACEMENT_3D ( 'NONE', #88, #199, #74 ) ;
#84 = CARTESIAN_POINT ( 'NONE',  ( -7.820406621970522400, 25.67723730754857700, -6.801425757498883200 ) ) ;
#85 = AXIS2_PLACEMENT_3D ( 'NONE', #62, #192, #7 ) ;
#86 = EDGE_CURVE ( 'NONE', #11, #121, #169, .T. ) ;
#87 =( BOUNDED_SURFACE ( )  B_SPLINE_SURFACE ( 3, 3, ( 
 ( #184, #133, #84, #59 ),
 ( #223, #25, #172, #66 ),
 ( #96, #221, #113, #2 ),
 ( #215, #125, #72, #13 ) ),
 .UNSPECIFIED., .F., .F., .F. ) 
 B_SPLINE_SURFACE_WITH_KNOTS ( ( 4, 4 ),
 ( 4, 4 ),
 ( 0.0000000000000000000, 1.000000000000000000 ),
 ( 0.0000000000000000000, 1.000000000000000000 ),
 .UNSPECIFIED. ) 
 GEOMETRIC_REPRESENTATION_ITEM ( )  RATIONAL_B_SPLINE_SURFACE ( (
 ( 1.000000000000000000, 0.9780367744982881900, 0.9780367744982881900, 1.000000000000000000),
 ( 0.9125836931109968500, 0.8925404116700150800, 0.8925404116700150800, 0.9125836931109968500),
 ( 0.9125836931109968500, 0.8925404116700150800, 0.8925404116700150800, 0.9125836931109968500),
 ( 1.000000000000000000, 0.9780367744982881900, 0.9780367744982881900, 1.000000000000000000) ) ) 
 REPRESENTATION_ITEM ( '' )  SURFACE ( )  );
#88 = CARTESIAN_POINT ( 'NONE',  ( 9.992007221626412800E-016, 4.884981308350691100E-015, -6.644598951474179700 ) ) ;
#89 = PERSON_AND_ORGANIZATION_ROLE ( 'design_supplier' ) ;
#90 = ADVANCED_FACE ( 'NONE', ( #210 ), #99, .T. ) ;
#91 = PERSON_AND_ORGANIZATION_ROLE ( 'creator' ) ;
#92 = COORDINATED_UNIVERSAL_TIME_OFFSET ( 2, 0, .AHEAD. ) ;
#93 = LINE ( 'NONE', #114, #205 ) ;
#94 = EDGE_LOOP ( 'NONE', ( #131, #225, #4 ) ) ;
#95 = CARTESIAN_POINT ( 'NONE',  ( 9.431689877877230900, -9.378952491840298200, 2.484311232252694300 ) ) ;
#96 = CARTESIAN_POINT ( 'NONE',  ( -26.76191574876696300, -9.378952491840282200, -4.560476487408036100 ) ) ;
#97 = AXIS2_PLACEMENT_3D ( 'NONE', #107, #229, #144 ) ;
#98 = PERSON_AND_ORGANIZATION ( #167, #42 ) ;
#99 = CYLINDRICAL_SURFACE ( 'NONE', #134, 25.39999999999999900 ) ;
#100 = DIRECTION ( 'NONE',  ( 0.0000000000000000000, 0.0000000000000000000, 1.000000000000000000 ) ) ;
#101 = CALENDAR_DATE ( 2019, 16, 1 ) ;
#102 = AXIS2_PLACEMENT_3D ( 'NONE', #226, #214, #29 ) ;
#103 = CALENDAR_DATE ( 2019, 16, 1 ) ;
#104 = PERSON_AND_ORGANIZATION ( #167, #42 ) ;
#105 = DIRECTION ( 'NONE',  ( -0.0000000000000000000, -0.0000000000000000000, -1.000000000000000000 ) ) ;
#106 = PERSON_AND_ORGANIZATION_ROLE ( 'design_owner' ) ;
#107 = CARTESIAN_POINT ( 'NONE',  ( 0.0000000000000000000, 52.02000000000000300, 3.500000000000000000 ) ) ;
#108 = COORDINATED_UNIVERSAL_TIME_OFFSET ( 2, 0, .AHEAD. ) ;
#109 = APPROVAL_STATUS ( 'not_yet_approved' ) ;
#110 = VERTEX_POINT ( 'NONE', #136 ) ;
#111 = ORIENTED_EDGE ( 'NONE', *, *, #156, .T. ) ;
#112 = DIRECTION ( 'NONE',  ( 1.000000000000000000, 0.0000000000000000000, 0.0000000000000000000 ) ) ;
#113 = CARTESIAN_POINT ( 'NONE',  ( -9.431689877877225600, -9.378952491840291100, 2.484311232252699200 ) ) ;
#114 = CARTESIAN_POINT ( 'NONE',  ( -25.39999999999999900, 7.995584178184967200E-015, -6.644598951474179700 ) ) ;
#115 =( GEOMETRIC_REPRESENTATION_CONTEXT ( 3 ) GLOBAL_UNCERTAINTY_ASSIGNED_CONTEXT ( ( #9 ) ) GLOBAL_UNIT_ASSIGNED_CONTEXT ( ( #126, #231, #52 ) ) REPRESENTATION_CONTEXT ( 'NONE', 'WORKASPACE' ) );
#116 = CC_DESIGN_APPROVAL ( #19, ( #141 ) ) ;
#117 = CC_DESIGN_PERSON_AND_ORGANIZATION_ASSIGNMENT ( #36, #106, ( #147 ) ) ;
#118 = EDGE_CURVE ( 'NONE', #158, #121, #93, .T. ) ;
#119 = CIRCLE ( 'NONE', #15, 25.39999999999999900 ) ;
#120 = PERSON_AND_ORGANIZATION ( #167, #42 ) ;
#121 = VERTEX_POINT ( 'NONE', #150 ) ;
#122 = CC_DESIGN_DATE_AND_TIME_ASSIGNMENT ( #41, #200, ( #141 ) ) ;
#123 = CARTESIAN_POINT ( 'NONE',  ( -25.39999999999999900, 7.995584178184967200E-015, -6.644598951474179700 ) ) ;
#124 = ADVANCED_FACE ( 'NONE', ( #179 ), #87, .F. ) ;
#125 = CARTESIAN_POINT ( 'NONE',  ( -15.38317121271092700, -25.67723730754859800, -8.792242544147930200 ) ) ;
#126 =( LENGTH_UNIT ( ) NAMED_UNIT ( * ) SI_UNIT ( .MILLI., .METRE. ) );
#127 = CARTESIAN_POINT ( 'NONE',  ( 1.665024840137796600E-014, 25.67723730754857700, -6.801425757498889400 ) ) ;
#128 = CARTESIAN_POINT ( 'NONE',  ( 18.55265425827940000, 9.378952491840273400, 0.08331503819356508900 ) ) ;
#129 = CLOSED_SHELL ( 'NONE', ( #124, #230, #50, #90, #177 ) ) ;
#130 = CARTESIAN_POINT ( 'NONE',  ( 7.820406621970524200, -25.67723730754860500, -6.801425757498879700 ) ) ;
#131 = ORIENTED_EDGE ( 'NONE', *, *, #135, .F. ) ;
#132 = CARTESIAN_POINT ( 'NONE',  ( 9.992007221626412800E-016, 4.884981308350691100E-015, -6.644598951474179700 ) ) ;
#133 = CARTESIAN_POINT ( 'NONE',  ( -15.38317121271091100, 25.67723730754858000, -8.792242544147939000 ) ) ;
#134 = AXIS2_PLACEMENT_3D ( 'NONE', #202, #39, #82 ) ;
#135 = EDGE_CURVE ( 'NONE', #222, #158, #187, .T. ) ;
#136 = CARTESIAN_POINT ( 'NONE',  ( 25.39999999999999900, 4.884981308350691100E-015, -6.644598951474179700 ) ) ;
#137 = ORIENTED_EDGE ( 'NONE', *, *, #61, .F. ) ;
#138 = PRODUCT_DEFINITION ( 'UNKNOWN', '', #185, #54 ) ;
#139 = FACE_OUTER_BOUND ( 'NONE', #37, .T. ) ;
#140 = ORIENTED_EDGE ( 'NONE', *, *, #86, .T. ) ;
#141 = SECURITY_CLASSIFICATION ( '', '', #212 ) ;
#142 = APPROVAL_STATUS ( 'not_yet_approved' ) ;
#143 = CC_DESIGN_DATE_AND_TIME_ASSIGNMENT ( #145, #16, ( #138 ) ) ;
#144 = DIRECTION ( 'NONE',  ( 1.000000000000000000, 0.0000000000000000000, -0.0000000000000000000 ) ) ;
#145 = DATE_AND_TIME ( #101, #193 ) ;
#146 = ORIENTED_EDGE ( 'NONE', *, *, #61, .T. ) ;
#147 = PRODUCT ( '112-0505 BK7 pl-cv 50.8 F-100', '112-0505 BK7 pl-cv 50.8 F-100', '', ( #14 ) ) ;
#148 = CARTESIAN_POINT ( 'NONE',  ( 26.76191574876696300, -9.378952491840298200, -4.560476487408056600 ) ) ;
#149 = DIRECTION ( 'NONE',  ( 0.0000000000000000000, 0.0000000000000000000, 1.000000000000000000 ) ) ;
#150 = CARTESIAN_POINT ( 'NONE',  ( -25.39999999999999900, 7.995584178184967200E-015, 3.500000000000000400 ) ) ;
#151 = CC_DESIGN_APPROVAL ( #165, ( #138 ) ) ;
#152 = ORIENTED_EDGE ( 'NONE', *, *, #86, .F. ) ;
#153 = APPROVAL_DATE_TIME ( #12, #60 ) ;
#154 = DIRECTION ( 'NONE',  ( 0.0000000000000000000, 0.0000000000000000000, 1.000000000000000000 ) ) ;
#155 = CC_DESIGN_PERSON_AND_ORGANIZATION_ASSIGNMENT ( #104, #196, ( #185 ) ) ;
#156 = EDGE_CURVE ( 'NONE', #110, #11, #218, .T. ) ;
#157 = APPROVAL_PERSON_ORGANIZATION ( #98, #60, #49 ) ;
#158 = VERTEX_POINT ( 'NONE', #123 ) ;
#159 = SHAPE_DEFINITION_REPRESENTATION ( #191, #197 ) ;
#160 = COORDINATED_UNIVERSAL_TIME_OFFSET ( 2, 0, .AHEAD. ) ;
#161 = APPROVAL_ROLE ( '' ) ;
#162 = MANIFOLD_SOLID_BREP ( 'Imported1', #129 ) ;
#163 = APPLICATION_PROTOCOL_DEFINITION ( 'international standard', 'config_control_design', 1994, #30 ) ;
#164 = PERSON_AND_ORGANIZATION ( #167, #42 ) ;
#165 = APPROVAL ( #142, 'UNSPECIFIED' ) ;
#166 = CARTESIAN_POINT ( 'NONE',  ( -1.421085471520200100E-014, -2.486899575160350000E-014, -51.86999999999999700 ) ) ;
#167 = PERSON ( 'UNSPECIFIED', 'UNSPECIFIED', 'UNSPECIFIED', ('UNSPECIFIED'), ('UNSPECIFIED'), ('UNSPECIFIED') ) ;
#168 = AXIS2_PLACEMENT_3D ( 'NONE', #51, #105, #198 ) ;
#169 = CIRCLE ( 'NONE', #85, 25.39999999999999900 ) ;
#170 = VECTOR ( 'NONE', #46, 1000.000000000000000 ) ;
#171 = ORIENTED_EDGE ( 'NONE', *, *, #8, .F. ) ;
#172 = CARTESIAN_POINT ( 'NONE',  ( -9.431689877877216700, 9.378952491840276900, 2.484311232252699700 ) ) ;
#173 = CC_DESIGN_PERSON_AND_ORGANIZATION_ASSIGNMENT ( #189, #91, ( #138 ) ) ;
#174 = ORIENTED_EDGE ( 'NONE', *, *, #118, .T. ) ;
#175 = PRODUCT_RELATED_PRODUCT_CATEGORY ( 'detail', '', ( #147 ) ) ;
#176 = CARTESIAN_POINT ( 'NONE',  ( 1.665495227987703700E-014, 25.39999999999998400, -6.644598951474182300 ) ) ;
#177 = ADVANCED_FACE ( 'NONE', ( #56 ), #53, .T. ) ;
#178 = DIRECTION ( 'NONE',  ( 1.000000000000000000, 0.0000000000000000000, 0.0000000000000000000 ) ) ;
#179 = FACE_OUTER_BOUND ( 'NONE', #94, .T. ) ;
#180 = EDGE_CURVE ( 'NONE', #121, #11, #79, .T. ) ;
#181 = CARTESIAN_POINT ( 'NONE',  ( 25.39999999999999900, 4.884981308350691100E-015, 3.500000000000000400 ) ) ;
#182 = ORIENTED_EDGE ( 'NONE', *, *, #156, .F. ) ;
#183 = DIRECTION ( 'NONE',  ( 2.801096586449981700E-016, 1.000000000000000000, 2.675494082863785900E-016 ) ) ;
#184 = CARTESIAN_POINT ( 'NONE',  ( -22.18998565985279100, 25.67723730754858400, -12.64270184339275000 ) ) ;
#185 = PRODUCT_DEFINITION_FORMATION_WITH_SPECIFIED_SOURCE ( 'ANY', '', #147, .NOT_KNOWN. ) ;
#186 = CALENDAR_DATE ( 2019, 16, 1 ) ;
#187 = CIRCLE ( 'NONE', #83, 25.39999999999999900 ) ;
#188 = ORIENTED_EDGE ( 'NONE', *, *, #180, .F. ) ;
#189 = PERSON_AND_ORGANIZATION ( #167, #42 ) ;
#190 = CC_DESIGN_SECURITY_CLASSIFICATION ( #141, ( #185 ) ) ;
#191 = PRODUCT_DEFINITION_SHAPE ( 'NONE', 'NONE',  #138 ) ;
#192 = DIRECTION ( 'NONE',  ( -0.0000000000000000000, -0.0000000000000000000, -1.000000000000000000 ) ) ;
#193 = LOCAL_TIME ( 9, 20, 44.00000000000000000, #10 ) ;
#194 = LOCAL_TIME ( 9, 20, 44.00000000000000000, #160 ) ;
#195 = DATE_AND_TIME ( #64, #45 ) ;
#196 = PERSON_AND_ORGANIZATION_ROLE ( 'creator' ) ;
#197 = ADVANCED_BREP_SHAPE_REPRESENTATION ( '112-0505 BK7 pl-cv 50.8 F-100', ( #162, #224 ), #115 ) ;
#198 = DIRECTION ( 'NONE',  ( 1.000000000000000000, 0.0000000000000000000, 0.0000000000000000000 ) ) ;
#199 = DIRECTION ( 'NONE',  ( 0.0000000000000000000, 0.0000000000000000000, 1.000000000000000000 ) ) ;
#200 = DATE_TIME_ROLE ( 'classification_date' ) ;
#201 = APPROVAL_PERSON_ORGANIZATION ( #164, #19, #161 ) ;
#202 = CARTESIAN_POINT ( 'NONE',  ( 9.992007221626412800E-016, 4.884981308350691100E-015, -6.644598951474179700 ) ) ;
#203 = CARTESIAN_POINT ( 'NONE',  ( 1.170726108582947600E-014, -9.378952491840292900, 2.484311232252699700 ) ) ;
#204 = CARTESIAN_POINT ( 'NONE',  ( 22.18998565985280200, -25.67723730754860500, -12.64270184339275900 ) ) ;
#205 = VECTOR ( 'NONE', #100, 1000.000000000000000 ) ;
#206 = CARTESIAN_POINT ( 'NONE',  ( 25.39999999999999900, 4.884981308350691100E-015, -6.644598951474179700 ) ) ;
#207 = ORIENTED_EDGE ( 'NONE', *, *, #118, .F. ) ;
#208 = CIRCLE ( 'NONE', #27, 25.39999999999999900 ) ;
#209 = APPROVAL_DATE_TIME ( #216, #19 ) ;
#210 = FACE_OUTER_BOUND ( 'NONE', #219, .T. ) ;
#211 = EDGE_LOOP ( 'NONE', ( #152, #188 ) ) ;
#212 = SECURITY_CLASSIFICATION_LEVEL ( 'unclassified' ) ;
#213 = APPLICATION_PROTOCOL_DEFINITION ( 'international standard', 'config_control_design', 1994, #55 ) ;
#214 = DIRECTION ( 'NONE',  ( 0.0000000000000000000, 0.0000000000000000000, 1.000000000000000000 ) ) ;
#215 = CARTESIAN_POINT ( 'NONE',  ( -22.18998565985281600, -25.67723730754859400, -12.64270184339274300 ) ) ;
#216 = DATE_AND_TIME ( #103, #48 ) ;
#217 = CARTESIAN_POINT ( 'NONE',  ( 18.55265425827940000, -9.378952491840298200, 0.08331503819356944600 ) ) ;
#218 = LINE ( 'NONE', #206, #170 ) ;
#219 = EDGE_LOOP ( 'NONE', ( #207, #21, #65, #111, #140 ) ) ;
#220 = CARTESIAN_POINT ( 'NONE',  ( 9.992007221626412800E-016, 4.884981308350691100E-015, -6.644598951474179700 ) ) ;
#221 = CARTESIAN_POINT ( 'NONE',  ( -18.55265425827939300, -9.378952491840287600, 0.08331503819358331000 ) ) ;
#222 = VERTEX_POINT ( 'NONE', #176 ) ;
#223 = CARTESIAN_POINT ( 'NONE',  ( -26.76191574876695300, 9.378952491840282200, -4.560476487408038800 ) ) ;
#224 = AXIS2_PLACEMENT_3D ( 'NONE', #31, #228, #71 ) ;
#225 = ORIENTED_EDGE ( 'NONE', *, *, #8, .T. ) ;
#226 = CARTESIAN_POINT ( 'NONE',  ( 9.992007221626412800E-016, 4.884981308350691100E-015, -6.644598951474179700 ) ) ;
#227 = PERSON_AND_ORGANIZATION ( #167, #42 ) ;
#228 = DIRECTION ( 'NONE',  ( 0.0000000000000000000, 0.0000000000000000000, 1.000000000000000000 ) ) ;
#229 = DIRECTION ( 'NONE',  ( 0.0000000000000000000, 0.0000000000000000000, 1.000000000000000000 ) ) ;
#230 = ADVANCED_FACE ( 'NONE', ( #3 ), #70, .T. ) ;
#231 =( NAMED_UNIT ( * ) PLANE_ANGLE_UNIT ( ) SI_UNIT ( $, .RADIAN. ) );
#232 = CIRCLE ( 'NONE', #40, 25.39999999999999900 ) ;
#233 = ORIENTED_EDGE ( 'NONE', *, *, #135, .T. ) ;
#234 = CARTESIAN_POINT ( 'NONE',  ( 2.265364047049885700E-015, -25.67723730754859800, -6.801425757498876100 ) ) ;
#235 = APPROVAL_DATE_TIME ( #195, #165 ) ;
ENDSEC;
END-ISO-10303-21;
