ISO-10303-21;
HEADER;
FILE_DESCRIPTION (( 'STEP AP203' ),
    '1' );
FILE_NAME ('112-0502 BK7 pl-cv 50.8 F-75.STEP',
    '2019-01-15T14:47:59',
    ( '' ),
    ( '' ),
    'SwSTEP 2.0',
    'SolidWorks 2017',
    '' );
FILE_SCHEMA (( 'CONFIG_CONTROL_DESIGN' ));
ENDSEC;

DATA;
#1 = PRODUCT_DEFINITION_FORMATION_WITH_SPECIFIED_SOURCE ( 'ANY', '', #155, .NOT_KNOWN. ) ;
#2 = ORIENTED_EDGE ( 'NONE', *, *, #3, .T. ) ;
#3 = EDGE_CURVE ( 'NONE', #202, #218, #77, .T. ) ;
#4 = APPROVAL_DATE_TIME ( #53, #13 ) ;
#5 = LOCAL_TIME ( 16, 47, 59.00000000000000000, #57 ) ;
#6 = CARTESIAN_POINT ( 'NONE',  ( -2.775557561562891000E-014, -10.24554847826093400, 3.856564301416739200 ) ) ;
#7 = PLANE ( 'NONE',  #210 ) ;
#8 = CARTESIAN_POINT ( 'NONE',  ( -25.39999999999999900, 7.995584178184967200E-015, -9.437311731615519500 ) ) ;
#9 = PERSON_AND_ORGANIZATION ( #180, #16 ) ;
#10 = CARTESIAN_POINT ( 'NONE',  ( -25.39999999999999900, 7.995584178184967200E-015, 3.000000000000000900 ) ) ;
#11 = EDGE_LOOP ( 'NONE', ( #181, #146, #70 ) ) ;
#12 = CARTESIAN_POINT ( 'NONE',  ( 9.992007221626412800E-016, 4.884981308350691100E-015, -9.437311731615519500 ) ) ;
#13 = APPROVAL ( #33, 'UNSPECIFIED' ) ;
#14 = EDGE_CURVE ( 'NONE', #202, #206, #174, .T. ) ;
#15 = PERSON_AND_ORGANIZATION_ROLE ( 'creator' ) ;
#16 = ORGANIZATION ( 'UNSPECIFIED', 'UNSPECIFIED', '' ) ;
#17 = COORDINATED_UNIVERSAL_TIME_OFFSET ( 2, 0, .AHEAD. ) ;
#18 = VECTOR ( 'NONE', #153, 1000.000000000000000 ) ;
#19 = ORIENTED_EDGE ( 'NONE', *, *, #169, .T. ) ;
#20 = DIRECTION ( 'NONE',  ( 0.0000000000000000000, 0.0000000000000000000, 1.000000000000000000 ) ) ;
#21 = FACE_OUTER_BOUND ( 'NONE', #100, .T. ) ;
#22 = PRODUCT_RELATED_PRODUCT_CATEGORY ( 'detail', '', ( #155 ) ) ;
#23 = ORIENTED_EDGE ( 'NONE', *, *, #165, .T. ) ;
#24 = ADVANCED_FACE ( 'NONE', ( #223 ), #200, .F. ) ;
#25 = CARTESIAN_POINT ( 'NONE',  ( -7.130503756728300500, -25.65061696674807800, -9.655242363370899000 ) ) ;
#26 = CARTESIAN_POINT ( 'NONE',  ( 25.39999999999999900, 4.884981308350691100E-015, -9.437311731615519500 ) ) ;
#27 = CARTESIAN_POINT ( 'NONE',  ( -25.39999999999999900, 7.995584178184967200E-015, -9.437311731615519500 ) ) ;
#28 = CIRCLE ( 'NONE', #215, 25.39999999999999900 ) ;
#29 = CARTESIAN_POINT ( 'NONE',  ( -2.775557561562891000E-014, 10.24554847826091800, 3.856564301416744600 ) ) ;
#30 = CARTESIAN_POINT ( 'NONE',  ( 9.992007221626412800E-016, 4.884981308350691100E-015, 3.000000000000000900 ) ) ;
#31 = CARTESIAN_POINT ( 'NONE',  ( -28.05615521420676500, 10.24554847826092900, -6.635841163025444800 ) ) ;
#32 = CALENDAR_DATE ( 2019, 15, 1 ) ;
#33 = APPROVAL_STATUS ( 'not_yet_approved' ) ;
#34 = ORIENTED_EDGE ( 'NONE', *, *, #165, .F. ) ;
#35 = UNCERTAINTY_MEASURE_WITH_UNIT (LENGTH_MEASURE( 1.000000000000000100E-005 ), #171, 'distance_accuracy_value', 'NONE');
#36 = PERSON_AND_ORGANIZATION_ROLE ( 'design_supplier' ) ;
#37 = SECURITY_CLASSIFICATION ( '', '', #160 ) ;
#38 = EDGE_CURVE ( 'NONE', #85, #218, #28, .T. ) ;
#39 = ORIENTED_EDGE ( 'NONE', *, *, #38, .F. ) ;
#40 =( BOUNDED_SURFACE ( )  B_SPLINE_SURFACE ( 3, 3, ( 
 ( #79, #49, #98, #136 ),
 ( #31, #194, #157, #29 ),
 ( #158, #228, #175, #6 ),
 ( #176, #135, #25, #114 ) ),
 .UNSPECIFIED., .F., .F., .F. ) 
 B_SPLINE_SURFACE_WITH_KNOTS ( ( 4, 4 ),
 ( 4, 4 ),
 ( 0.0000000000000000000, 1.000000000000000000 ),
 ( 0.0000000000000000000, 1.000000000000000000 ),
 .UNSPECIFIED. ) 
 GEOMETRIC_REPRESENTATION_ITEM ( )  RATIONAL_B_SPLINE_SURFACE ( (
 ( 1.000000000000000000, 0.9577621916708695100, 0.9577621916708695100, 1.000000000000000000),
 ( 0.8345288369602245100, 0.7992801678995663500, 0.7992801678995663500, 0.8345288369602245100),
 ( 0.8345288369602245100, 0.7992801678995663500, 0.7992801678995663500, 0.8345288369602245100),
 ( 1.000000000000000000, 0.9577621916708695100, 0.9577621916708695100, 1.000000000000000000) ) ) 
 REPRESENTATION_ITEM ( '' )  SURFACE ( )  );
#41 = ORIENTED_EDGE ( 'NONE', *, *, #86, .T. ) ;
#42 = CARTESIAN_POINT ( 'NONE',  ( -1.065814103640150000E-014, 25.65061696674805700, -9.655242363370900800 ) ) ;
#43 = DATE_AND_TIME ( #32, #187 ) ;
#44 = CARTESIAN_POINT ( 'NONE',  ( 9.992007221626412800E-016, 4.884981308350691100E-015, -9.437311731615519500 ) ) ;
#45 = ORIENTED_EDGE ( 'NONE', *, *, #226, .T. ) ;
#46 = CARTESIAN_POINT ( 'NONE',  ( 20.18945620943966500, 10.24554847826091800, 0.2048556428760747400 ) ) ;
#47 = DIRECTION ( 'NONE',  ( 0.0000000000000000000, 0.0000000000000000000, 1.000000000000000000 ) ) ;
#48 = DIRECTION ( 'NONE',  ( 1.000000000000000000, 0.0000000000000000000, 0.0000000000000000000 ) ) ;
#49 = CARTESIAN_POINT ( 'NONE',  ( -13.80924223700629800, 25.65061696674806100, -12.15294853839823100 ) ) ;
#50 = DIRECTION ( 'NONE',  ( 1.000000000000000000, 0.0000000000000000000, 0.0000000000000000000 ) ) ;
#51 = DIRECTION ( 'NONE',  ( 1.000000000000000000, 0.0000000000000000000, 0.0000000000000000000 ) ) ;
#52 = EDGE_LOOP ( 'NONE', ( #34, #41, #19, #2, #128 ) ) ;
#53 = DATE_AND_TIME ( #94, #112 ) ;
#54 = APPROVAL_ROLE ( '' ) ;
#55 = DATE_AND_TIME ( #143, #107 ) ;
#56 = CIRCLE ( 'NONE', #99, 25.39999999999999900 ) ;
#57 = COORDINATED_UNIVERSAL_TIME_OFFSET ( 2, 0, .AHEAD. ) ;
#58 = PERSON_AND_ORGANIZATION ( #180, #16 ) ;
#59 = CC_DESIGN_SECURITY_CLASSIFICATION ( #37, ( #1 ) ) ;
#60 = CARTESIAN_POINT ( 'NONE',  ( 13.80924223700630000, -25.65061696674807500, -12.15294853839823300 ) ) ;
#61 = AXIS2_PLACEMENT_3D ( 'NONE', #213, #212, #66 ) ;
#62 = CARTESIAN_POINT ( 'NONE',  ( 28.05615521420675800, -10.24554847826092900, -6.635841163025450100 ) ) ;
#63 = FACE_OUTER_BOUND ( 'NONE', #167, .T. ) ;
#64 = CARTESIAN_POINT ( 'NONE',  ( -1.065814103640150000E-014, -10.24554847826093400, 3.856564301416740100 ) ) ;
#65 = ORIENTED_EDGE ( 'NONE', *, *, #86, .F. ) ;
#66 = DIRECTION ( 'NONE',  ( 1.000000000000000000, 0.0000000000000000000, 0.0000000000000000000 ) ) ;
#67 = ADVANCED_FACE ( 'NONE', ( #123 ), #163, .T. ) ;
#68 = EDGE_LOOP ( 'NONE', ( #104, #235, #23, #185, #126 ) ) ;
#69 = APPLICATION_PROTOCOL_DEFINITION ( 'international standard', 'config_control_design', 1994, #217 ) ;
#70 = ORIENTED_EDGE ( 'NONE', *, *, #169, .F. ) ;
#71 = APPROVAL ( #179, 'UNSPECIFIED' ) ;
#72 = VERTEX_POINT ( 'NONE', #27 ) ;
#73 = DIRECTION ( 'NONE',  ( 0.0000000000000000000, 0.0000000000000000000, 1.000000000000000000 ) ) ;
#74 = VERTEX_POINT ( 'NONE', #152 ) ;
#75 = CC_DESIGN_PERSON_AND_ORGANIZATION_ASSIGNMENT ( #9, #36, ( #1 ) ) ;
#76 = CIRCLE ( 'NONE', #92, 25.39999999999999900 ) ;
#77 = LINE ( 'NONE', #89, #189 ) ;
#78 = DIRECTION ( 'NONE',  ( 1.000000000000000000, 0.0000000000000000000, -0.0000000000000000000 ) ) ;
#79 = CARTESIAN_POINT ( 'NONE',  ( -19.18992961340294600, 25.65061696674806400, -16.83186798440301100 ) ) ;
#80 = LOCAL_TIME ( 16, 47, 59.00000000000000000, #154 ) ;
#81 = CARTESIAN_POINT ( 'NONE',  ( 0.0000000000000000000, 52.02000000000000300, 3.000000000000000000 ) ) ;
#82 = AXIS2_PLACEMENT_3D ( 'NONE', #192, #138, #120 ) ;
#83 = AXIS2_PLACEMENT_3D ( 'NONE', #117, #47, #50 ) ;
#84 = APPROVAL_ROLE ( '' ) ;
#85 = VERTEX_POINT ( 'NONE', #10 ) ;
#86 = EDGE_CURVE ( 'NONE', #72, #74, #108, .T. ) ;
#87 = COORDINATED_UNIVERSAL_TIME_OFFSET ( 2, 0, .AHEAD. ) ;
#88 = LINE ( 'NONE', #8, #18 ) ;
#89 = CARTESIAN_POINT ( 'NONE',  ( 25.39999999999999900, 4.884981308350691100E-015, -9.437311731615519500 ) ) ;
#90 = CARTESIAN_POINT ( 'NONE',  ( 20.18945620943966500, -10.24554847826093400, 0.2048556428760756100 ) ) ;
#91 = APPROVAL ( #220, 'UNSPECIFIED' ) ;
#92 = AXIS2_PLACEMENT_3D ( 'NONE', #30, #231, #51 ) ;
#93 = ADVANCED_FACE ( 'NONE', ( #21 ), #40, .F. ) ;
#94 = CALENDAR_DATE ( 2019, 15, 1 ) ;
#95 = DIRECTION ( 'NONE',  ( 1.000000000000000000, 0.0000000000000000000, 0.0000000000000000000 ) ) ;
#96 = DIRECTION ( 'NONE',  ( 0.0000000000000000000, 0.0000000000000000000, 1.000000000000000000 ) ) ;
#97 = DIRECTION ( 'NONE',  ( 1.000000000000000000, 0.0000000000000000000, 0.0000000000000000000 ) ) ;
#98 = CARTESIAN_POINT ( 'NONE',  ( -7.130503756728286300, 25.65061696674805700, -9.655242363370899000 ) ) ;
#99 = AXIS2_PLACEMENT_3D ( 'NONE', #134, #227, #141 ) ;
#100 = EDGE_LOOP ( 'NONE', ( #229, #45, #65 ) ) ;
#101 = CARTESIAN_POINT ( 'NONE',  ( -1.065814103640150000E-014, 25.39999999999999100, -9.437311731615521300 ) ) ;
#102 = PERSON_AND_ORGANIZATION ( #180, #16 ) ;
#103 = APPLICATION_PROTOCOL_DEFINITION ( 'international standard', 'config_control_design', 1994, #198 ) ;
#104 = ORIENTED_EDGE ( 'NONE', *, *, #14, .T. ) ;
#105 = CC_DESIGN_PERSON_AND_ORGANIZATION_ASSIGNMENT ( #225, #122, ( #1 ) ) ;
#106 = CIRCLE ( 'NONE', #132, 38.89999999999999900 ) ;
#107 = LOCAL_TIME ( 16, 47, 59.00000000000000000, #133 ) ;
#108 = CIRCLE ( 'NONE', #61, 25.39999999999999900 ) ;
#109 = CC_DESIGN_APPROVAL ( #71, ( #224 ) ) ;
#110 = CARTESIAN_POINT ( 'NONE',  ( -1.065814103640150000E-014, -25.65061696674807500, -9.655242363370897300 ) ) ;
#111 = CARTESIAN_POINT ( 'NONE',  ( 19.18992961340295600, -25.65061696674807100, -16.83186798440302200 ) ) ;
#112 = LOCAL_TIME ( 16, 47, 59.00000000000000000, #87 ) ;
#113 = CLOSED_SHELL ( 'NONE', ( #93, #170, #24, #67, #190 ) ) ;
#114 = CARTESIAN_POINT ( 'NONE',  ( -2.428612866367529900E-014, -25.65061696674807500, -9.655242363370897300 ) ) ;
#115 = DIRECTION ( 'NONE',  ( 1.000000000000000000, 0.0000000000000000000, 0.0000000000000000000 ) ) ;
#116 = DIRECTION ( 'NONE',  ( 1.000000000000000000, 0.0000000000000000000, 0.0000000000000000000 ) ) ;
#117 = CARTESIAN_POINT ( 'NONE',  ( 9.992007221626412800E-016, 4.884981308350691100E-015, -9.437311731615519500 ) ) ;
#118 = MECHANICAL_CONTEXT ( 'NONE', #217, 'mechanical' ) ;
#119 = CC_DESIGN_DATE_AND_TIME_ASSIGNMENT ( #43, #234, ( #224 ) ) ;
#120 = DIRECTION ( 'NONE',  ( 1.000000000000000000, 0.0000000000000000000, 0.0000000000000000000 ) ) ;
#121 = MANIFOLD_SOLID_BREP ( 'Imported1', #113 ) ;
#122 = PERSON_AND_ORGANIZATION_ROLE ( 'creator' ) ;
#123 = FACE_OUTER_BOUND ( 'NONE', #52, .T. ) ;
#124 = AXIS2_PLACEMENT_3D ( 'NONE', #44, #96, #95 ) ;
#125 = DATE_AND_TIME ( #166, #80 ) ;
#126 = ORIENTED_EDGE ( 'NONE', *, *, #3, .F. ) ;
#127 = ADVANCED_BREP_SHAPE_REPRESENTATION ( '112-0502 BK7 pl-cv 50.8 F-75', ( #121, #82 ), #183 ) ;
#128 = ORIENTED_EDGE ( 'NONE', *, *, #177, .T. ) ;
#129 = APPROVAL_PERSON_ORGANIZATION ( #204, #91, #195 ) ;
#130 = CIRCLE ( 'NONE', #83, 25.39999999999999900 ) ;
#131 = CARTESIAN_POINT ( 'NONE',  ( 13.80924223700627700, 25.65061696674805700, -12.15294853839823300 ) ) ;
#132 = AXIS2_PLACEMENT_3D ( 'NONE', #151, #48, #173 ) ;
#133 = COORDINATED_UNIVERSAL_TIME_OFFSET ( 2, 0, .AHEAD. ) ;
#134 = CARTESIAN_POINT ( 'NONE',  ( 9.992007221626412800E-016, 4.884981308350691100E-015, -9.437311731615519500 ) ) ;
#135 = CARTESIAN_POINT ( 'NONE',  ( -13.80924223700632100, -25.65061696674807500, -12.15294853839823100 ) ) ;
#136 = CARTESIAN_POINT ( 'NONE',  ( -2.081668171172168500E-014, 25.65061696674805700, -9.655242363370899000 ) ) ;
#137 = CARTESIAN_POINT ( 'NONE',  ( 9.992007221626412800E-016, 4.884981308350691100E-015, 3.000000000000000900 ) ) ;
#138 = DIRECTION ( 'NONE',  ( 0.0000000000000000000, 0.0000000000000000000, 1.000000000000000000 ) ) ;
#139 = CC_DESIGN_APPROVAL ( #91, ( #1 ) ) ;
#140 = DATE_AND_TIME ( #201, #5 ) ;
#141 = DIRECTION ( 'NONE',  ( 1.000000000000000000, 0.0000000000000000000, 0.0000000000000000000 ) ) ;
#142 = DATE_TIME_ROLE ( 'classification_date' ) ;
#143 = CALENDAR_DATE ( 2019, 15, 1 ) ;
#144 = APPROVAL_PERSON_ORGANIZATION ( #205, #13, #54 ) ;
#145 = CC_DESIGN_PERSON_AND_ORGANIZATION_ASSIGNMENT ( #232, #15, ( #224 ) ) ;
#146 = ORIENTED_EDGE ( 'NONE', *, *, #14, .F. ) ;
#147 = EDGE_CURVE ( 'NONE', #206, #72, #56, .T. ) ;
#148 = CARTESIAN_POINT ( 'NONE',  ( 10.42497414969814300, 10.24554847826091800, 3.856564301416737900 ) ) ;
#149 = CARTESIAN_POINT ( 'NONE',  ( 25.39999999999999900, 4.884981308350691100E-015, 3.000000000000000900 ) ) ;
#150 = CARTESIAN_POINT ( 'NONE',  ( -1.065814103640150000E-014, 10.24554847826091800, 3.856564301416739200 ) ) ;
#151 = CARTESIAN_POINT ( 'NONE',  ( -1.065814103640150000E-014, -1.065814103640150000E-014, -38.89999999999999900 ) ) ;
#152 = CARTESIAN_POINT ( 'NONE',  ( -1.065814103640150000E-014, -25.39999999999999900, -9.437311731615524800 ) ) ;
#153 = DIRECTION ( 'NONE',  ( 0.0000000000000000000, 0.0000000000000000000, 1.000000000000000000 ) ) ;
#154 = COORDINATED_UNIVERSAL_TIME_OFFSET ( 2, 0, .AHEAD. ) ;
#155 = PRODUCT ( '112-0502 BK7 pl-cv 50.8 F-75', '112-0502 BK7 pl-cv 50.8 F-75', '', ( #118 ) ) ;
#156 = FACE_OUTER_BOUND ( 'NONE', #68, .T. ) ;
#157 = CARTESIAN_POINT ( 'NONE',  ( -10.42497414969817600, 10.24554847826092200, 3.856564301416740100 ) ) ;
#158 = CARTESIAN_POINT ( 'NONE',  ( -28.05615521420677200, -10.24554847826092900, -6.635841163025446600 ) ) ;
#159 = CYLINDRICAL_SURFACE ( 'NONE', #221, 25.39999999999999900 ) ;
#160 = SECURITY_CLASSIFICATION_LEVEL ( 'unclassified' ) ;
#161 = PERSON_AND_ORGANIZATION_ROLE ( 'design_owner' ) ;
#162 = PRODUCT_DEFINITION_SHAPE ( 'NONE', 'NONE',  #224 ) ;
#163 = CYLINDRICAL_SURFACE ( 'NONE', #196, 25.39999999999999900 ) ;
#164 = CC_DESIGN_DATE_AND_TIME_ASSIGNMENT ( #140, #142, ( #37 ) ) ;
#165 = EDGE_CURVE ( 'NONE', #72, #85, #88, .T. ) ;
#166 = CALENDAR_DATE ( 2019, 15, 1 ) ;
#167 = EDGE_LOOP ( 'NONE', ( #182, #39 ) ) ;
#168 = CARTESIAN_POINT ( 'NONE',  ( 19.18992961340292800, 25.65061696674806100, -16.83186798440301500 ) ) ;
#169 = EDGE_CURVE ( 'NONE', #74, #202, #130, .T. ) ;
#170 = ADVANCED_FACE ( 'NONE', ( #156 ), #159, .T. ) ;
#171 =( LENGTH_UNIT ( ) NAMED_UNIT ( * ) SI_UNIT ( .MILLI., .METRE. ) );
#172 = CARTESIAN_POINT ( 'NONE',  ( 28.05615521420674300, 10.24554847826092400, -6.635841163025450100 ) ) ;
#173 = DIRECTION ( 'NONE',  ( 0.0000000000000000000, 1.000000000000000000, 7.135109412758075500E-016 ) ) ;
#174 = CIRCLE ( 'NONE', #124, 25.39999999999999900 ) ;
#175 = CARTESIAN_POINT ( 'NONE',  ( -10.42497414969818000, -10.24554847826093400, 3.856564301416733900 ) ) ;
#176 = CARTESIAN_POINT ( 'NONE',  ( -19.18992961340297000, -25.65061696674806800, -16.83186798440301900 ) ) ;
#177 = EDGE_CURVE ( 'NONE', #218, #85, #76, .T. ) ;
#178 = APPROVAL_DATE_TIME ( #125, #91 ) ;
#179 = APPROVAL_STATUS ( 'not_yet_approved' ) ;
#180 = PERSON ( 'UNSPECIFIED', 'UNSPECIFIED', 'UNSPECIFIED', ('UNSPECIFIED'), ('UNSPECIFIED'), ('UNSPECIFIED') ) ;
#181 = ORIENTED_EDGE ( 'NONE', *, *, #226, .F. ) ;
#182 = ORIENTED_EDGE ( 'NONE', *, *, #177, .F. ) ;
#183 =( GEOMETRIC_REPRESENTATION_CONTEXT ( 3 ) GLOBAL_UNCERTAINTY_ASSIGNED_CONTEXT ( ( #35 ) ) GLOBAL_UNIT_ASSIGNED_CONTEXT ( ( #171, #211, #199 ) ) REPRESENTATION_CONTEXT ( 'NONE', 'WORKASPACE' ) );
#184 = CARTESIAN_POINT ( 'NONE',  ( 9.992007221626412800E-016, 4.884981308350691100E-015, -9.437311731615519500 ) ) ;
#185 = ORIENTED_EDGE ( 'NONE', *, *, #38, .T. ) ;
#186 = CARTESIAN_POINT ( 'NONE',  ( 7.130503756728258800, 25.65061696674805700, -9.655242363370900800 ) ) ;
#187 = LOCAL_TIME ( 16, 47, 59.00000000000000000, #17 ) ;
#188 = CC_DESIGN_PERSON_AND_ORGANIZATION_ASSIGNMENT ( #233, #161, ( #155 ) ) ;
#189 = VECTOR ( 'NONE', #20, 1000.000000000000000 ) ;
#190 = ADVANCED_FACE ( 'NONE', ( #63 ), #7, .T. ) ;
#191 = SHAPE_DEFINITION_REPRESENTATION ( #162, #127 ) ;
#192 = CARTESIAN_POINT ( 'NONE',  ( 0.0000000000000000000, 0.0000000000000000000, 0.0000000000000000000 ) ) ;
#193 = DIRECTION ( 'NONE',  ( -0.0000000000000000000, -0.0000000000000000000, -1.000000000000000000 ) ) ;
#194 = CARTESIAN_POINT ( 'NONE',  ( -20.18945620943968700, 10.24554847826092200, 0.2048556428760738600 ) ) ;
#195 = APPROVAL_ROLE ( '' ) ;
#196 = AXIS2_PLACEMENT_3D ( 'NONE', #184, #73, #97 ) ;
#197 = APPROVAL_DATE_TIME ( #55, #71 ) ;
#198 = APPLICATION_CONTEXT ( 'configuration controlled 3d designs of mechanical parts and assemblies' ) ;
#199 =( NAMED_UNIT ( * ) SI_UNIT ( $, .STERADIAN. ) SOLID_ANGLE_UNIT ( ) );
#200 =( BOUNDED_SURFACE ( )  B_SPLINE_SURFACE ( 3, 3, ( 
 ( #42, #186, #131, #168 ),
 ( #150, #148, #46, #172 ),
 ( #64, #207, #90, #62 ),
 ( #110, #208, #60, #111 ) ),
 .UNSPECIFIED., .F., .F., .T. ) 
 B_SPLINE_SURFACE_WITH_KNOTS ( ( 4, 4 ),
 ( 4, 4 ),
 ( 0.0000000000000000000, 1.000000000000000000 ),
 ( 0.0000000000000000000, 1.000000000000000000 ),
 .UNSPECIFIED. ) 
 GEOMETRIC_REPRESENTATION_ITEM ( )  RATIONAL_B_SPLINE_SURFACE ( (
 ( 1.000000000000000000, 0.9577621916708692900, 0.9577621916708692900, 1.000000000000000000),
 ( 0.8345288369602245100, 0.7992801678995661300, 0.7992801678995661300, 0.8345288369602245100),
 ( 0.8345288369602245100, 0.7992801678995661300, 0.7992801678995661300, 0.8345288369602245100),
 ( 1.000000000000000000, 0.9577621916708692900, 0.9577621916708692900, 1.000000000000000000) ) ) 
 REPRESENTATION_ITEM ( '' )  SURFACE ( )  );
#201 = CALENDAR_DATE ( 2019, 15, 1 ) ;
#202 = VERTEX_POINT ( 'NONE', #26 ) ;
#203 = CC_DESIGN_PERSON_AND_ORGANIZATION_ASSIGNMENT ( #102, #219, ( #37 ) ) ;
#204 = PERSON_AND_ORGANIZATION ( #180, #16 ) ;
#205 = PERSON_AND_ORGANIZATION ( #180, #16 ) ;
#206 = VERTEX_POINT ( 'NONE', #101 ) ;
#207 = CARTESIAN_POINT ( 'NONE',  ( 10.42497414969814800, -10.24554847826093600, 3.856564301416740100 ) ) ;
#208 = CARTESIAN_POINT ( 'NONE',  ( 7.130503756728270300, -25.65061696674807500, -9.655242363370895500 ) ) ;
#209 = APPROVAL_PERSON_ORGANIZATION ( #58, #71, #84 ) ;
#210 = AXIS2_PLACEMENT_3D ( 'NONE', #81, #216, #78 ) ;
#211 =( NAMED_UNIT ( * ) PLANE_ANGLE_UNIT ( ) SI_UNIT ( $, .RADIAN. ) );
#212 = DIRECTION ( 'NONE',  ( 0.0000000000000000000, 0.0000000000000000000, 1.000000000000000000 ) ) ;
#213 = CARTESIAN_POINT ( 'NONE',  ( 9.992007221626412800E-016, 4.884981308350691100E-015, -9.437311731615519500 ) ) ;
#214 = CC_DESIGN_APPROVAL ( #13, ( #37 ) ) ;
#215 = AXIS2_PLACEMENT_3D ( 'NONE', #137, #193, #115 ) ;
#216 = DIRECTION ( 'NONE',  ( 0.0000000000000000000, 0.0000000000000000000, 1.000000000000000000 ) ) ;
#217 = APPLICATION_CONTEXT ( 'configuration controlled 3d designs of mechanical parts and assemblies' ) ;
#218 = VERTEX_POINT ( 'NONE', #149 ) ;
#219 = PERSON_AND_ORGANIZATION_ROLE ( 'classification_officer' ) ;
#220 = APPROVAL_STATUS ( 'not_yet_approved' ) ;
#221 = AXIS2_PLACEMENT_3D ( 'NONE', #12, #230, #116 ) ;
#222 = DESIGN_CONTEXT ( 'detailed design', #198, 'design' ) ;
#223 = FACE_OUTER_BOUND ( 'NONE', #11, .T. ) ;
#224 = PRODUCT_DEFINITION ( 'UNKNOWN', '', #1, #222 ) ;
#225 = PERSON_AND_ORGANIZATION ( #180, #16 ) ;
#226 = EDGE_CURVE ( 'NONE', #206, #74, #106, .T. ) ;
#227 = DIRECTION ( 'NONE',  ( 0.0000000000000000000, 0.0000000000000000000, 1.000000000000000000 ) ) ;
#228 = CARTESIAN_POINT ( 'NONE',  ( -20.18945620943969000, -10.24554847826093100, 0.2048556428760721400 ) ) ;
#229 = ORIENTED_EDGE ( 'NONE', *, *, #147, .F. ) ;
#230 = DIRECTION ( 'NONE',  ( 0.0000000000000000000, 0.0000000000000000000, 1.000000000000000000 ) ) ;
#231 = DIRECTION ( 'NONE',  ( -0.0000000000000000000, -0.0000000000000000000, -1.000000000000000000 ) ) ;
#232 = PERSON_AND_ORGANIZATION ( #180, #16 ) ;
#233 = PERSON_AND_ORGANIZATION ( #180, #16 ) ;
#234 = DATE_TIME_ROLE ( 'creation_date' ) ;
#235 = ORIENTED_EDGE ( 'NONE', *, *, #147, .T. ) ;
ENDSEC;
END-ISO-10303-21;
