ISO-10303-21;
HEADER;
FILE_DESCRIPTION (( 'STEP AP203' ),
    '1' );
FILE_NAME ('112-0419E BK7 pl-cv 38.1 F-300.STEP',
    '2019-01-15T14:36:28',
    ( '' ),
    ( '' ),
    'SwSTEP 2.0',
    'SolidWorks 2017',
    '' );
FILE_SCHEMA (( 'CONFIG_CONTROL_DESIGN' ));
ENDSEC;

DATA;
#1 = VERTEX_POINT ( 'NONE', #46 ) ;
#2 = AXIS2_PLACEMENT_3D ( 'NONE', #153, #119, #227 ) ;
#3 = ORIENTED_EDGE ( 'NONE', *, *, #85, .F. ) ;
#4 = DIRECTION ( 'NONE',  ( 1.000000000000000000, 0.0000000000000000000, 1.138269997360109700E-017 ) ) ;
#5 = CYLINDRICAL_SURFACE ( 'NONE', #163, 19.05000000000000100 ) ;
#6 = SECURITY_CLASSIFICATION ( '', '', #178 ) ;
#7 = ADVANCED_BREP_SHAPE_REPRESENTATION ( '112-0419E BK7 pl-cv 38.1 F-300', ( #116, #24 ), #155 ) ;
#8 = PERSON_AND_ORGANIZATION ( #23, #144 ) ;
#9 = CARTESIAN_POINT ( 'NONE',  ( -8.326672684688674100E-014, 19.27743019142489400, -1.198767216013680000 ) ) ;
#10 = ADVANCED_FACE ( 'NONE', ( #98 ), #5, .T. ) ;
#11 = COORDINATED_UNIVERSAL_TIME_OFFSET ( 2, 0, .AHEAD. ) ;
#12 = CARTESIAN_POINT ( 'NONE',  ( -19.21318781509041800, 6.458984092853992100, -0.7860185883804566800 ) ) ;
#13 = ORIENTED_EDGE ( 'NONE', *, *, #80, .F. ) ;
#14 = DATE_TIME_ROLE ( 'creation_date' ) ;
#15 = DIRECTION ( 'NONE',  ( 1.000000000000000000, 0.0000000000000000000, 1.138269997360109700E-017 ) ) ;
#16 = CC_DESIGN_PERSON_AND_ORGANIZATION_ASSIGNMENT ( #48, #215, ( #21 ) ) ;
#17 = CARTESIAN_POINT ( 'NONE',  ( 0.0000000000000000000, 0.0000000000000000000, 0.0000000000000000000 ) ) ;
#18 = APPROVAL_DATE_TIME ( #66, #72 ) ;
#19 = EDGE_LOOP ( 'NONE', ( #218, #49, #95, #179, #62 ) ) ;
#20 = CARTESIAN_POINT ( 'NONE',  ( -4.662936703425659800E-015, -8.881784197001250400E-016, -1.170541994087150200 ) ) ;
#21 = PRODUCT_DEFINITION_FORMATION_WITH_SPECIFIED_SOURCE ( 'ANY', '', #180, .NOT_KNOWN. ) ;
#22 = CARTESIAN_POINT ( 'NONE',  ( -4.662936703425659800E-015, -8.881784197001250400E-016, -1.170541994087150200 ) ) ;
#23 = PERSON ( 'UNSPECIFIED', 'UNSPECIFIED', 'UNSPECIFIED', ('UNSPECIFIED'), ('UNSPECIFIED'), ('UNSPECIFIED') ) ;
#24 = AXIS2_PLACEMENT_3D ( 'NONE', #17, #176, #197 ) ;
#25 = DATE_AND_TIME ( #83, #148 ) ;
#26 = CC_DESIGN_APPROVAL ( #108, ( #211 ) ) ;
#27 = CALENDAR_DATE ( 2019, 15, 1 ) ;
#28 = DIRECTION ( 'NONE',  ( 1.000000000000000000, 0.0000000000000000000, 1.138269997360109700E-017 ) ) ;
#29 = LOCAL_TIME ( 16, 36, 28.00000000000000000, #42 ) ;
#30 = VECTOR ( 'NONE', #33, 1000.000000000000000 ) ;
#31 = DIRECTION ( 'NONE',  ( -1.165588477296749900E-017, -5.434385993627839900E-034, 1.000000000000000000 ) ) ;
#32 = AXIS2_PLACEMENT_3D ( 'NONE', #20, #174, #157 ) ;
#33 = DIRECTION ( 'NONE',  ( -1.165588477296749900E-017, -5.434385993627839900E-034, 1.000000000000000000 ) ) ;
#34 = CARTESIAN_POINT ( 'NONE',  ( -7.979727989493312600E-014, 6.458984092853991200, 0.4016519993785737700 ) ) ;
#35 = CARTESIAN_POINT ( 'NONE',  ( -19.01607993466660700, -19.27743019142494400, -2.374253504402484600 ) ) ;
#36 = CC_DESIGN_PERSON_AND_ORGANIZATION_ASSIGNMENT ( #202, #127, ( #180 ) ) ;
#37 = CIRCLE ( 'NONE', #32, 19.05000000000000100 ) ;
#38 = DATE_TIME_ROLE ( 'classification_date' ) ;
#39 = MECHANICAL_CONTEXT ( 'NONE', #195, 'mechanical' ) ;
#40 = APPROVAL_ROLE ( '' ) ;
#41 = AXIS2_PLACEMENT_3D ( 'NONE', #117, #132, #68 ) ;
#42 = COORDINATED_UNIVERSAL_TIME_OFFSET ( 2, 0, .AHEAD. ) ;
#43 = CYLINDRICAL_SURFACE ( 'NONE', #186, 19.05000000000000100 ) ;
#44 = ORIENTED_EDGE ( 'NONE', *, *, #181, .F. ) ;
#45 = ADVANCED_FACE ( 'NONE', ( #194 ), #207, .T. ) ;
#46 = CARTESIAN_POINT ( 'NONE',  ( 19.04999999999999700, -8.881784197001250400E-016, -1.170541994087150000 ) ) ;
#47 = CC_DESIGN_PERSON_AND_ORGANIZATION_ASSIGNMENT ( #193, #112, ( #211 ) ) ;
#48 = PERSON_AND_ORGANIZATION ( #23, #144 ) ;
#49 = ORIENTED_EDGE ( 'NONE', *, *, #223, .T. ) ;
#50 = CARTESIAN_POINT ( 'NONE',  ( 6.424780278203480000, 6.458984092853992100, 0.4016519993785847600 ) ) ;
#51 = ADVANCED_FACE ( 'NONE', ( #145 ), #168, .F. ) ;
#52 = CARTESIAN_POINT ( 'NONE',  ( -12.83732062512307900, -6.458984092854033900, 0.005258353714416436900 ) ) ;
#53 = ORIENTED_EDGE ( 'NONE', *, *, #166, .F. ) ;
#54 = DIRECTION ( 'NONE',  ( -1.165588477296749900E-017, -5.434385993627839900E-034, 1.000000000000000000 ) ) ;
#55 = ADVANCED_FACE ( 'NONE', ( #233 ), #43, .T. ) ;
#56 = AXIS2_PLACEMENT_3D ( 'NONE', #172, #212, #229 ) ;
#57 = LOCAL_TIME ( 16, 36, 28.00000000000000000, #232 ) ;
#58 = ORIENTED_EDGE ( 'NONE', *, *, #192, .F. ) ;
#59 =( LENGTH_UNIT ( ) NAMED_UNIT ( * ) SI_UNIT ( .MILLI., .METRE. ) );
#60 = PRODUCT_DEFINITION_SHAPE ( 'NONE', 'NONE',  #211 ) ;
#61 = APPROVAL_ROLE ( '' ) ;
#62 = ORIENTED_EDGE ( 'NONE', *, *, #87, .F. ) ;
#63 = DIRECTION ( 'NONE',  ( -1.165588477296749900E-017, -5.434385993627839900E-034, 1.000000000000000000 ) ) ;
#64 = ORIENTED_EDGE ( 'NONE', *, *, #192, .T. ) ;
#65 = CC_DESIGN_DATE_AND_TIME_ASSIGNMENT ( #154, #14, ( #211 ) ) ;
#66 = DATE_AND_TIME ( #27, #129 ) ;
#67 = APPROVAL_PERSON_ORGANIZATION ( #159, #72, #162 ) ;
#68 = DIRECTION ( 'NONE',  ( 1.000000000000000000, 0.0000000000000000000, -0.0000000000000000000 ) ) ;
#69 = CARTESIAN_POINT ( 'NONE',  ( 12.83732062512294400, 6.458984092853992100, 0.005258353714392584500 ) ) ;
#70 = APPROVAL_DATE_TIME ( #81, #108 ) ;
#71 = ADVANCED_FACE ( 'NONE', ( #225 ), #214, .F. ) ;
#72 = APPROVAL ( #142, 'UNSPECIFIED' ) ;
#73 =( NAMED_UNIT ( * ) PLANE_ANGLE_UNIT ( ) SI_UNIT ( $, .RADIAN. ) );
#74 = DIRECTION ( 'NONE',  ( 1.000000000000000000, 0.0000000000000000000, 1.138269997360109700E-017 ) ) ;
#75 = VERTEX_POINT ( 'NONE', #231 ) ;
#76 = CARTESIAN_POINT ( 'NONE',  ( -19.05000000000000400, 1.444773732675583000E-015, 4.700000000000000200 ) ) ;
#77 = DIRECTION ( 'NONE',  ( 1.165588477296749900E-017, 5.434385993627839900E-034, -1.000000000000000000 ) ) ;
#78 = CARTESIAN_POINT ( 'NONE',  ( -4.662936703425659800E-015, -8.881784197001250400E-016, -1.170541994087150200 ) ) ;
#79 = LINE ( 'NONE', #118, #30 ) ;
#80 = EDGE_CURVE ( 'NONE', #1, #161, #124, .T. ) ;
#81 = DATE_AND_TIME ( #114, #29 ) ;
#82 = CARTESIAN_POINT ( 'NONE',  ( 12.70562269539409400, 19.27743019142490200, -1.591094263669123900 ) ) ;
#83 = CALENDAR_DATE ( 2019, 15, 1 ) ;
#84 = CARTESIAN_POINT ( 'NONE',  ( -4.263256414560599900E-014, -6.458984092854032100, 0.4016519993786091800 ) ) ;
#85 = EDGE_CURVE ( 'NONE', #141, #188, #79, .T. ) ;
#86 = CARTESIAN_POINT ( 'NONE',  ( -4.662936703425659800E-015, -8.881784197001250400E-016, -1.170541994087150000 ) ) ;
#87 = EDGE_CURVE ( 'NONE', #1, #185, #165, .T. ) ;
#88 = CARTESIAN_POINT ( 'NONE',  ( -6.424780278203609600, 6.458984092853991200, 0.4016519993785721600 ) ) ;
#89 = APPROVAL_STATUS ( 'not_yet_approved' ) ;
#90 = ORIENTED_EDGE ( 'NONE', *, *, #223, .F. ) ;
#91 = PERSON_AND_ORGANIZATION_ROLE ( 'creator' ) ;
#92 = PRODUCT_RELATED_PRODUCT_CATEGORY ( 'detail', '', ( #180 ) ) ;
#93 = CARTESIAN_POINT ( 'NONE',  ( -4.263256414560599900E-014, 19.04999999999995100, -1.170541994087160400 ) ) ;
#94 = APPLICATION_PROTOCOL_DEFINITION ( 'international standard', 'config_control_design', 1994, #195 ) ;
#95 = ORIENTED_EDGE ( 'NONE', *, *, #85, .T. ) ;
#96 = AXIS2_PLACEMENT_3D ( 'NONE', #78, #63, #74 ) ;
#97 = ORIENTED_EDGE ( 'NONE', *, *, #87, .T. ) ;
#98 = FACE_OUTER_BOUND ( 'NONE', #19, .T. ) ;
#99 = CC_DESIGN_APPROVAL ( #205, ( #6 ) ) ;
#100 = EDGE_CURVE ( 'NONE', #161, #75, #175, .T. ) ;
#101 = CARTESIAN_POINT ( 'NONE',  ( -4.263256414560599900E-014, -19.27743019142494400, -1.198767216013640900 ) ) ;
#102 = CC_DESIGN_PERSON_AND_ORGANIZATION_ASSIGNMENT ( #8, #136, ( #6 ) ) ;
#103 = DIRECTION ( 'NONE',  ( -1.165588477296749900E-017, -5.434385993627839900E-034, 1.000000000000000000 ) ) ;
#104 = CARTESIAN_POINT ( 'NONE',  ( -12.70562269539423100, -19.27743019142494400, -1.591094263669096800 ) ) ;
#105 = CARTESIAN_POINT ( 'NONE',  ( -19.05000000000000400, 1.444773732675583000E-015, -1.170541994087150400 ) ) ;
#106 = CIRCLE ( 'NONE', #96, 19.05000000000000100 ) ;
#107 = ORIENTED_EDGE ( 'NONE', *, *, #100, .T. ) ;
#108 = APPROVAL ( #89, 'UNSPECIFIED' ) ;
#109 = CC_DESIGN_DATE_AND_TIME_ASSIGNMENT ( #25, #38, ( #6 ) ) ;
#110 = DIRECTION ( 'NONE',  ( -1.165588477296749900E-017, -5.434385993627839900E-034, 1.000000000000000000 ) ) ;
#111 = CLOSED_SHELL ( 'NONE', ( #71, #10, #51, #55, #45 ) ) ;
#112 = PERSON_AND_ORGANIZATION_ROLE ( 'creator' ) ;
#113 = PERSON_AND_ORGANIZATION ( #23, #144 ) ;
#114 = CALENDAR_DATE ( 2019, 15, 1 ) ;
#115 = CARTESIAN_POINT ( 'NONE',  ( -4.263256414560599900E-014, 6.458984092853992100, 0.4016519993785848100 ) ) ;
#116 = MANIFOLD_SOLID_BREP ( 'Imported1', #111 ) ;
#117 = CARTESIAN_POINT ( 'NONE',  ( 0.0000000000000000000, 39.06600000000000300, 4.700000000000000200 ) ) ;
#118 = CARTESIAN_POINT ( 'NONE',  ( -19.05000000000000400, 1.444773732675583000E-015, -1.170541994087150200 ) ) ;
#119 = DIRECTION ( 'NONE',  ( -1.165588477296749900E-017, -5.434385993627839900E-034, 1.000000000000000000 ) ) ;
#120 = APPROVAL_PERSON_ORGANIZATION ( #113, #108, #40 ) ;
#121 =( NAMED_UNIT ( * ) SI_UNIT ( $, .STERADIAN. ) SOLID_ANGLE_UNIT ( ) );
#122 = CARTESIAN_POINT ( 'NONE',  ( -4.731363064463606800E-015, -8.881784197001250400E-016, 4.700000000000000200 ) ) ;
#123 = CALENDAR_DATE ( 2019, 15, 1 ) ;
#124 = CIRCLE ( 'NONE', #2, 19.05000000000000100 ) ;
#125 = DIRECTION ( 'NONE',  ( 1.000000000000000000, 0.0000000000000000000, 0.0000000000000000000 ) ) ;
#126 = APPLICATION_CONTEXT ( 'configuration controlled 3d designs of mechanical parts and assemblies' ) ;
#127 = PERSON_AND_ORGANIZATION_ROLE ( 'design_owner' ) ;
#128 = CIRCLE ( 'NONE', #143, 19.05000000000000100 ) ;
#129 = LOCAL_TIME ( 16, 36, 28.00000000000000000, #11 ) ;
#130 = ORIENTED_EDGE ( 'NONE', *, *, #139, .T. ) ;
#131 = CARTESIAN_POINT ( 'NONE',  ( -4.263256414560599900E-014, 19.27743019142489800, -1.198767216013668600 ) ) ;
#132 = DIRECTION ( 'NONE',  ( 0.0000000000000000000, 0.0000000000000000000, 1.000000000000000000 ) ) ;
#133 = CARTESIAN_POINT ( 'NONE',  ( 19.04999999999999700, -8.881784197001250400E-016, -1.170541994087149800 ) ) ;
#134 = CARTESIAN_POINT ( 'NONE',  ( -6.424780278203607000, -6.458984092854033900, 0.4016519993785965800 ) ) ;
#135 = CIRCLE ( 'NONE', #198, 19.05000000000000100 ) ;
#136 = PERSON_AND_ORGANIZATION_ROLE ( 'classification_officer' ) ;
#137 = EDGE_LOOP ( 'NONE', ( #90, #107, #44 ) ) ;
#138 = CARTESIAN_POINT ( 'NONE',  ( -4.731363064463606800E-015, -8.881784197001250400E-016, 4.700000000000000200 ) ) ;
#139 = EDGE_CURVE ( 'NONE', #75, #1, #220, .T. ) ;
#140 = APPLICATION_PROTOCOL_DEFINITION ( 'international standard', 'config_control_design', 1994, #126 ) ;
#141 = VERTEX_POINT ( 'NONE', #105 ) ;
#142 = APPROVAL_STATUS ( 'not_yet_approved' ) ;
#143 = AXIS2_PLACEMENT_3D ( 'NONE', #138, #77, #125 ) ;
#144 = ORGANIZATION ( 'UNSPECIFIED', 'UNSPECIFIED', '' ) ;
#145 = FACE_OUTER_BOUND ( 'NONE', #146, .T. ) ;
#146 = EDGE_LOOP ( 'NONE', ( #183, #13, #200 ) ) ;
#147 = CARTESIAN_POINT ( 'NONE',  ( 19.21318781509028600, -6.458984092854031200, -0.7860185883804284800 ) ) ;
#148 = LOCAL_TIME ( 16, 36, 28.00000000000000000, #222 ) ;
#149 = EDGE_LOOP ( 'NONE', ( #3, #234, #130, #97, #64 ) ) ;
#150 = CC_DESIGN_SECURITY_CLASSIFICATION ( #6, ( #21 ) ) ;
#151 = CARTESIAN_POINT ( 'NONE',  ( 6.358868528679498600, 19.27743019142490200, -1.198767216013668600 ) ) ;
#152 = PERSON_AND_ORGANIZATION ( #23, #144 ) ;
#153 = CARTESIAN_POINT ( 'NONE',  ( -4.662936703425659800E-015, -8.881784197001250400E-016, -1.170541994087150200 ) ) ;
#154 = DATE_AND_TIME ( #224, #57 ) ;
#155 =( GEOMETRIC_REPRESENTATION_CONTEXT ( 3 ) GLOBAL_UNCERTAINTY_ASSIGNED_CONTEXT ( ( #184 ) ) GLOBAL_UNIT_ASSIGNED_CONTEXT ( ( #59, #73, #121 ) ) REPRESENTATION_CONTEXT ( 'NONE', 'WORKASPACE' ) );
#156 = CARTESIAN_POINT ( 'NONE',  ( -6.358868528679627400, -19.27743019142494800, -1.198767216013653100 ) ) ;
#157 = DIRECTION ( 'NONE',  ( 1.000000000000000000, 0.0000000000000000000, 1.138269997360109700E-017 ) ) ;
#158 = DIRECTION ( 'NONE',  ( 1.000000000000000000, 0.0000000000000000000, 0.0000000000000000000 ) ) ;
#159 = PERSON_AND_ORGANIZATION ( #23, #144 ) ;
#160 = APPROVAL_STATUS ( 'not_yet_approved' ) ;
#161 = VERTEX_POINT ( 'NONE', #93 ) ;
#162 = APPROVAL_ROLE ( '' ) ;
#163 = AXIS2_PLACEMENT_3D ( 'NONE', #86, #31, #28 ) ;
#164 = DATE_AND_TIME ( #123, #221 ) ;
#165 = LINE ( 'NONE', #133, #182 ) ;
#166 = EDGE_CURVE ( 'NONE', #188, #185, #135, .T. ) ;
#167 = CARTESIAN_POINT ( 'NONE',  ( 19.01607993466646100, 19.27743019142489800, -2.374253504402508600 ) ) ;
#168 =( BOUNDED_SURFACE ( )  B_SPLINE_SURFACE ( 3, 3, ( 
 ( #131, #151, #82, #167 ),
 ( #115, #50, #69, #189 ),
 ( #84, #206, #208, #147 ),
 ( #101, #209, #169, #226 ) ),
 .UNSPECIFIED., .F., .F., .F. ) 
 B_SPLINE_SURFACE_WITH_KNOTS ( ( 4, 4 ),
 ( 4, 4 ),
 ( 0.0000000000000000000, 1.000000000000000000 ),
 ( 0.0000000000000000000, 1.000000000000000000 ),
 .UNSPECIFIED. ) 
 GEOMETRIC_REPRESENTATION_ITEM ( )  RATIONAL_B_SPLINE_SURFACE ( (
 ( 1.000000000000000000, 0.9987299247855906400, 0.9987299247855906400, 1.000000000000000000),
 ( 0.9948638936760341200, 0.9936003417029654100, 0.9936003417029654100, 0.9948638936760341200),
 ( 0.9948638936760341200, 0.9936003417029654100, 0.9936003417029654100, 0.9948638936760341200),
 ( 1.000000000000000000, 0.9987299247855906400, 0.9987299247855906400, 1.000000000000000000) ) ) 
 REPRESENTATION_ITEM ( '' )  SURFACE ( )  );
#169 = CARTESIAN_POINT ( 'NONE',  ( 12.70562269539409800, -19.27743019142494400, -1.591094263669096600 ) ) ;
#170 = CARTESIAN_POINT ( 'NONE',  ( -12.83732062512307900, 6.458984092853991200, 0.005258353714391934000 ) ) ;
#171 = APPROVAL_DATE_TIME ( #164, #205 ) ;
#172 = CARTESIAN_POINT ( 'NONE',  ( -4.263256414560599900E-014, -4.263256414560599900E-014, -155.5999999999999900 ) ) ;
#173 = CARTESIAN_POINT ( 'NONE',  ( -7.632783294297951200E-014, -19.27743019142494800, -1.198767216013651800 ) ) ;
#174 = DIRECTION ( 'NONE',  ( -1.165588477296749900E-017, -5.434385993627839900E-034, 1.000000000000000000 ) ) ;
#175 = CIRCLE ( 'NONE', #56, 155.5999999999999900 ) ;
#176 = DIRECTION ( 'NONE',  ( 0.0000000000000000000, 0.0000000000000000000, 1.000000000000000000 ) ) ;
#177 = CC_DESIGN_APPROVAL ( #72, ( #21 ) ) ;
#178 = SECURITY_CLASSIFICATION_LEVEL ( 'unclassified' ) ;
#179 = ORIENTED_EDGE ( 'NONE', *, *, #166, .T. ) ;
#180 = PRODUCT ( '112-0419E BK7 pl-cv 38.1 F-300', '112-0419E BK7 pl-cv 38.1 F-300', '', ( #39 ) ) ;
#181 = EDGE_CURVE ( 'NONE', #141, #75, #106, .T. ) ;
#182 = VECTOR ( 'NONE', #54, 1000.000000000000000 ) ;
#183 = ORIENTED_EDGE ( 'NONE', *, *, #100, .F. ) ;
#184 = UNCERTAINTY_MEASURE_WITH_UNIT (LENGTH_MEASURE( 1.000000000000000100E-005 ), #59, 'distance_accuracy_value', 'NONE');
#185 = VERTEX_POINT ( 'NONE', #217 ) ;
#186 = AXIS2_PLACEMENT_3D ( 'NONE', #203, #103, #4 ) ;
#187 = COORDINATED_UNIVERSAL_TIME_OFFSET ( 2, 0, .AHEAD. ) ;
#188 = VERTEX_POINT ( 'NONE', #76 ) ;
#189 = CARTESIAN_POINT ( 'NONE',  ( 19.21318781509028300, 6.458984092853993000, -0.7860185883804528000 ) ) ;
#190 = CC_DESIGN_PERSON_AND_ORGANIZATION_ASSIGNMENT ( #201, #91, ( #21 ) ) ;
#191 = CARTESIAN_POINT ( 'NONE',  ( -19.01607993466660300, 19.27743019142489800, -2.374253504402512600 ) ) ;
#192 = EDGE_CURVE ( 'NONE', #185, #188, #128, .T. ) ;
#193 = PERSON_AND_ORGANIZATION ( #23, #144 ) ;
#194 = FACE_OUTER_BOUND ( 'NONE', #196, .T. ) ;
#195 = APPLICATION_CONTEXT ( 'configuration controlled 3d designs of mechanical parts and assemblies' ) ;
#196 = EDGE_LOOP ( 'NONE', ( #58, #53 ) ) ;
#197 = DIRECTION ( 'NONE',  ( 1.000000000000000000, 0.0000000000000000000, 0.0000000000000000000 ) ) ;
#198 = AXIS2_PLACEMENT_3D ( 'NONE', #122, #219, #158 ) ;
#199 = SHAPE_DEFINITION_REPRESENTATION ( #60, #7 ) ;
#200 = ORIENTED_EDGE ( 'NONE', *, *, #139, .F. ) ;
#201 = PERSON_AND_ORGANIZATION ( #23, #144 ) ;
#202 = PERSON_AND_ORGANIZATION ( #23, #144 ) ;
#203 = CARTESIAN_POINT ( 'NONE',  ( -4.662936703425659800E-015, -8.881784197001250400E-016, -1.170541994087150000 ) ) ;
#204 = AXIS2_PLACEMENT_3D ( 'NONE', #22, #110, #15 ) ;
#205 = APPROVAL ( #160, 'UNSPECIFIED' ) ;
#206 = CARTESIAN_POINT ( 'NONE',  ( 6.424780278203480900, -6.458984092854033000, 0.4016519993786092900 ) ) ;
#207 = PLANE ( 'NONE',  #41 ) ;
#208 = CARTESIAN_POINT ( 'NONE',  ( 12.83732062512294700, -6.458984092854033000, 0.005258353714416979000 ) ) ;
#209 = CARTESIAN_POINT ( 'NONE',  ( 6.358868528679502100, -19.27743019142494400, -1.198767216013640900 ) ) ;
#210 = CARTESIAN_POINT ( 'NONE',  ( -6.358868528679630900, 19.27743019142489800, -1.198767216013681700 ) ) ;
#211 = PRODUCT_DEFINITION ( 'UNKNOWN', '', #21, #235 ) ;
#212 = DIRECTION ( 'NONE',  ( 1.000000000000000000, 0.0000000000000000000, 0.0000000000000000000 ) ) ;
#213 = CARTESIAN_POINT ( 'NONE',  ( -19.21318781509041800, -6.458984092854032100, -0.7860185883804321500 ) ) ;
#214 =( BOUNDED_SURFACE ( )  B_SPLINE_SURFACE ( 3, 3, ( 
 ( #191, #230, #210, #9 ),
 ( #12, #170, #88, #34 ),
 ( #213, #52, #134, #228 ),
 ( #35, #104, #156, #173 ) ),
 .UNSPECIFIED., .F., .F., .F. ) 
 B_SPLINE_SURFACE_WITH_KNOTS ( ( 4, 4 ),
 ( 4, 4 ),
 ( 0.0000000000000000000, 1.000000000000000000 ),
 ( 0.0000000000000000000, 1.000000000000000000 ),
 .UNSPECIFIED. ) 
 GEOMETRIC_REPRESENTATION_ITEM ( )  RATIONAL_B_SPLINE_SURFACE ( (
 ( 1.000000000000000000, 0.9987299247855906400, 0.9987299247855906400, 1.000000000000000000),
 ( 0.9948638936760341200, 0.9936003417029654100, 0.9936003417029654100, 0.9948638936760341200),
 ( 0.9948638936760341200, 0.9936003417029654100, 0.9936003417029654100, 0.9948638936760341200),
 ( 1.000000000000000000, 0.9987299247855906400, 0.9987299247855906400, 1.000000000000000000) ) ) 
 REPRESENTATION_ITEM ( '' )  SURFACE ( )  );
#215 = PERSON_AND_ORGANIZATION_ROLE ( 'design_supplier' ) ;
#216 = APPROVAL_PERSON_ORGANIZATION ( #152, #205, #61 ) ;
#217 = CARTESIAN_POINT ( 'NONE',  ( 19.04999999999999700, -8.881784197001250400E-016, 4.700000000000000200 ) ) ;
#218 = ORIENTED_EDGE ( 'NONE', *, *, #80, .T. ) ;
#219 = DIRECTION ( 'NONE',  ( 1.165588477296749900E-017, 5.434385993627839900E-034, -1.000000000000000000 ) ) ;
#220 = CIRCLE ( 'NONE', #204, 19.05000000000000100 ) ;
#221 = LOCAL_TIME ( 16, 36, 28.00000000000000000, #187 ) ;
#222 = COORDINATED_UNIVERSAL_TIME_OFFSET ( 2, 0, .AHEAD. ) ;
#223 = EDGE_CURVE ( 'NONE', #161, #141, #37, .T. ) ;
#224 = CALENDAR_DATE ( 2019, 15, 1 ) ;
#225 = FACE_OUTER_BOUND ( 'NONE', #137, .T. ) ;
#226 = CARTESIAN_POINT ( 'NONE',  ( 19.01607993466646800, -19.27743019142494400, -2.374253504402481500 ) ) ;
#227 = DIRECTION ( 'NONE',  ( 1.000000000000000000, 0.0000000000000000000, 1.138269997360109700E-017 ) ) ;
#228 = CARTESIAN_POINT ( 'NONE',  ( -7.632783294297952500E-014, -6.458984092854033000, 0.4016519993785979100 ) ) ;
#229 = DIRECTION ( 'NONE',  ( 0.0000000000000000000, 1.000000000000000000, 7.135109412758075500E-016 ) ) ;
#230 = CARTESIAN_POINT ( 'NONE',  ( -12.70562269539423100, 19.27743019142490200, -1.591094263669124300 ) ) ;
#231 = CARTESIAN_POINT ( 'NONE',  ( -4.263256414560599900E-014, -19.04999999999999400, -1.170541994087146700 ) ) ;
#232 = COORDINATED_UNIVERSAL_TIME_OFFSET ( 2, 0, .AHEAD. ) ;
#233 = FACE_OUTER_BOUND ( 'NONE', #149, .T. ) ;
#234 = ORIENTED_EDGE ( 'NONE', *, *, #181, .T. ) ;
#235 = DESIGN_CONTEXT ( 'detailed design', #126, 'design' ) ;
ENDSEC;
END-ISO-10303-21;
