ISO-10303-21;
HEADER;
FILE_DESCRIPTION (( 'STEP AP203' ),
    '1' );
FILE_NAME ('112-0411E BK7 pl-cv 38.1 F-150.STEP',
    '2019-01-16T10:07:17',
    ( '' ),
    ( '' ),
    'SwSTEP 2.0',
    'SolidWorks 2017',
    '' );
FILE_SCHEMA (( 'CONFIG_CONTROL_DESIGN' ));
ENDSEC;

DATA;
#1 = VERTEX_POINT ( 'NONE', #130 ) ;
#2 = PERSON_AND_ORGANIZATION ( #104, #195 ) ;
#3 = FACE_OUTER_BOUND ( 'NONE', #105, .T. ) ;
#4 = DIRECTION ( 'NONE',  ( -0.0000000000000000000, -0.0000000000000000000, -1.000000000000000000 ) ) ;
#5 = DIRECTION ( 'NONE',  ( 1.000000000000000000, 0.0000000000000000000, 0.0000000000000000000 ) ) ;
#6 = ORIENTED_EDGE ( 'NONE', *, *, #113, .T. ) ;
#7 = COORDINATED_UNIVERSAL_TIME_OFFSET ( 2, 0, .AHEAD. ) ;
#8 = EDGE_CURVE ( 'NONE', #16, #227, #9, .T. ) ;
#9 = CIRCLE ( 'NONE', #100, 19.05000000000000100 ) ;
#10 = CARTESIAN_POINT ( 'NONE',  ( -19.36521736845194000, 6.560922210782639000, -1.596342713130303000 ) ) ;
#11 = MECHANICAL_CONTEXT ( 'NONE', #50, 'mechanical' ) ;
#12 = COORDINATED_UNIVERSAL_TIME_OFFSET ( 2, 0, .AHEAD. ) ;
#13 = SECURITY_CLASSIFICATION ( '', '', #193 ) ;
#14 =( NAMED_UNIT ( * ) PLANE_ANGLE_UNIT ( ) SI_UNIT ( $, .RADIAN. ) );
#15 = PERSON_AND_ORGANIZATION_ROLE ( 'creator' ) ;
#16 = VERTEX_POINT ( 'NONE', #161 ) ;
#17 = CARTESIAN_POINT ( 'NONE',  ( 0.0000000000000000000, -6.560922210782624800, 0.8254449390847120600 ) ) ;
#18 = CLOSED_SHELL ( 'NONE', ( #224, #133, #80, #26, #182 ) ) ;
#19 = CARTESIAN_POINT ( 'NONE',  ( -19.05000000000000400, 1.444773732675583000E-015, -2.368011691101350000 ) ) ;
#20 = COORDINATED_UNIVERSAL_TIME_OFFSET ( 2, 0, .AHEAD. ) ;
#21 = ORIENTED_EDGE ( 'NONE', *, *, #65, .F. ) ;
#22 = EDGE_CURVE ( 'NONE', #227, #47, #174, .T. ) ;
#23 = APPROVAL ( #156, 'UNSPECIFIED' ) ;
#24 = PERSON_AND_ORGANIZATION ( #104, #195 ) ;
#25 = CARTESIAN_POINT ( 'NONE',  ( 12.48907254149878200, 19.27383488922830400, -3.202789606077205000 ) ) ;
#26 = ADVANCED_FACE ( 'NONE', ( #3 ), #165, .T. ) ;
#27 = DIRECTION ( 'NONE',  ( 0.0000000000000000000, 0.0000000000000000000, 1.000000000000000000 ) ) ;
#28 = LOCAL_TIME ( 12, 7, 17.00000000000000000, #12 ) ;
#29 = CIRCLE ( 'NONE', #82, 19.05000000000000100 ) ;
#30 = CARTESIAN_POINT ( 'NONE',  ( 6.268762800355021100, -19.27383488922829400, -2.424886160046380000 ) ) ;
#31 = DIRECTION ( 'NONE',  ( 0.0000000000000000000, 0.0000000000000000000, 1.000000000000000000 ) ) ;
#32 = EDGE_CURVE ( 'NONE', #47, #111, #29, .T. ) ;
#33 = CARTESIAN_POINT ( 'NONE',  ( -6.539048983464431000, 6.560922210782638200, 0.8254449390846907400 ) ) ;
#34 = CC_DESIGN_APPROVAL ( #221, ( #95 ) ) ;
#35 = PERSON_AND_ORGANIZATION_ROLE ( 'creator' ) ;
#36 = CIRCLE ( 'NONE', #219, 77.81000000000000200 ) ;
#37 = CARTESIAN_POINT ( 'NONE',  ( 0.0000000000000000000, 39.06600000000000300, 3.299999999999999800 ) ) ;
#38 = EDGE_LOOP ( 'NONE', ( #200, #147, #69, #143, #207 ) ) ;
#39 = CARTESIAN_POINT ( 'NONE',  ( 2.131628207280300200E-014, 6.560922210782639000, 0.8254449390846939600 ) ) ;
#40 = APPROVAL_PERSON_ORGANIZATION ( #2, #23, #45 ) ;
#41 = ORIENTED_EDGE ( 'NONE', *, *, #58, .F. ) ;
#42 = CC_DESIGN_PERSON_AND_ORGANIZATION_ASSIGNMENT ( #59, #35, ( #95 ) ) ;
#43 = DIRECTION ( 'NONE',  ( 0.0000000000000000000, 0.0000000000000000000, 1.000000000000000000 ) ) ;
#44 = CARTESIAN_POINT ( 'NONE',  ( -6.938893903907227600E-015, 6.560922210782638200, 0.8254449390846930700 ) ) ;
#45 = APPROVAL_ROLE ( '' ) ;
#46 =( GEOMETRIC_REPRESENTATION_CONTEXT ( 3 ) GLOBAL_UNCERTAINTY_ASSIGNED_CONTEXT ( ( #109 ) ) GLOBAL_UNIT_ASSIGNED_CONTEXT ( ( #142, #14, #61 ) ) REPRESENTATION_CONTEXT ( 'NONE', 'WORKASPACE' ) );
#47 = VERTEX_POINT ( 'NONE', #180 ) ;
#48 = APPROVAL_ROLE ( '' ) ;
#49 = PRODUCT ( '112-0411E BK7 pl-cv 38.1 F-150', '112-0411E BK7 pl-cv 38.1 F-150', '', ( #11 ) ) ;
#50 = APPLICATION_CONTEXT ( 'configuration controlled 3d designs of mechanical parts and assemblies' ) ;
#51 = EDGE_LOOP ( 'NONE', ( #41, #184 ) ) ;
#52 = PLANE ( 'NONE',  #178 ) ;
#53 = ORIENTED_EDGE ( 'NONE', *, *, #22, .F. ) ;
#54 = CC_DESIGN_PERSON_AND_ORGANIZATION_ASSIGNMENT ( #75, #172, ( #95 ) ) ;
#55 = APPROVAL_DATE_TIME ( #71, #221 ) ;
#56 = LOCAL_TIME ( 12, 7, 17.00000000000000000, #7 ) ;
#57 = CC_DESIGN_DATE_AND_TIME_ASSIGNMENT ( #217, #158, ( #84 ) ) ;
#58 = EDGE_CURVE ( 'NONE', #111, #47, #94, .T. ) ;
#59 = PERSON_AND_ORGANIZATION ( #104, #195 ) ;
#60 = ORIENTED_EDGE ( 'NONE', *, *, #8, .F. ) ;
#61 =( NAMED_UNIT ( * ) SI_UNIT ( $, .STERADIAN. ) SOLID_ANGLE_UNIT ( ) );
#62 = MANIFOLD_SOLID_BREP ( 'Imported1', #18 ) ;
#63 = CARTESIAN_POINT ( 'NONE',  ( -19.36521736845194000, -6.560922210782623900, -1.596342713130283400 ) ) ;
#64 = CARTESIAN_POINT ( 'NONE',  ( -12.48907254149878200, 19.27383488922830400, -3.202789606077219200 ) ) ;
#65 = EDGE_CURVE ( 'NONE', #154, #16, #222, .T. ) ;
#66 = APPLICATION_PROTOCOL_DEFINITION ( 'international standard', 'config_control_design', 1994, #50 ) ;
#67 = CC_DESIGN_DATE_AND_TIME_ASSIGNMENT ( #134, #186, ( #13 ) ) ;
#68 = DIRECTION ( 'NONE',  ( 0.0000000000000000000, 0.0000000000000000000, 1.000000000000000000 ) ) ;
#69 = ORIENTED_EDGE ( 'NONE', *, *, #22, .T. ) ;
#70 = DIRECTION ( 'NONE',  ( 0.0000000000000000000, 0.0000000000000000000, 1.000000000000000000 ) ) ;
#71 = DATE_AND_TIME ( #168, #125 ) ;
#72 = AXIS2_PLACEMENT_3D ( 'NONE', #167, #102, #155 ) ;
#73 = DESIGN_CONTEXT ( 'detailed design', #141, 'design' ) ;
#74 = DIRECTION ( 'NONE',  ( 0.0000000000000000000, 0.0000000000000000000, 1.000000000000000000 ) ) ;
#75 = PERSON_AND_ORGANIZATION ( #104, #195 ) ;
#76 = AXIS2_PLACEMENT_3D ( 'NONE', #183, #27, #5 ) ;
#77 = DIRECTION ( 'NONE',  ( -0.0000000000000000000, -0.0000000000000000000, -1.000000000000000000 ) ) ;
#78 = FACE_OUTER_BOUND ( 'NONE', #97, .T. ) ;
#79 = FACE_OUTER_BOUND ( 'NONE', #51, .T. ) ;
#80 = ADVANCED_FACE ( 'NONE', ( #78 ), #235, .F. ) ;
#81 = SHAPE_DEFINITION_REPRESENTATION ( #202, #218 ) ;
#82 = AXIS2_PLACEMENT_3D ( 'NONE', #132, #77, #223 ) ;
#83 = APPROVAL_DATE_TIME ( #139, #116 ) ;
#84 = PRODUCT_DEFINITION ( 'UNKNOWN', '', #95, #73 ) ;
#85 = COORDINATED_UNIVERSAL_TIME_OFFSET ( 2, 0, .AHEAD. ) ;
#86 = CARTESIAN_POINT ( 'NONE',  ( 19.36521736845193000, 6.560922210782639900, -1.596342713130281600 ) ) ;
#87 = CARTESIAN_POINT ( 'NONE',  ( 13.02755578856424300, 6.560922210782639000, 0.01400113430184528200 ) ) ;
#88 =( BOUNDED_SURFACE ( )  B_SPLINE_SURFACE ( 3, 3, ( 
 ( #119, #64, #144, #123 ),
 ( #10, #208, #33, #44 ),
 ( #63, #106, #231, #17 ),
 ( #170, #187, #140, #191 ) ),
 .UNSPECIFIED., .F., .F., .T. ) 
 B_SPLINE_SURFACE_WITH_KNOTS ( ( 4, 4 ),
 ( 4, 4 ),
 ( 0.0000000000000000000, 1.000000000000000000 ),
 ( 0.0000000000000000000, 1.000000000000000000 ),
 .UNSPECIFIED. ) 
 GEOMETRIC_REPRESENTATION_ITEM ( )  RATIONAL_B_SPLINE_SURFACE ( (
 ( 1.000000000000000000, 0.9948471428090522900, 0.9948471428090522900, 1.000000000000000000),
 ( 0.9792238687396960200, 0.9741780679861130600, 0.9741780679861130600, 0.9792238687396960200),
 ( 0.9792238687396960200, 0.9741780679861130600, 0.9741780679861130600, 0.9792238687396960200),
 ( 1.000000000000000000, 0.9948471428090522900, 0.9948471428090522900, 1.000000000000000000) ) ) 
 REPRESENTATION_ITEM ( '' )  SURFACE ( )  );
#89 = APPROVAL_STATUS ( 'not_yet_approved' ) ;
#90 = APPROVAL_STATUS ( 'not_yet_approved' ) ;
#91 = AXIS2_PLACEMENT_3D ( 'NONE', #190, #31, #210 ) ;
#92 = AXIS2_PLACEMENT_3D ( 'NONE', #129, #159, #173 ) ;
#93 = ORIENTED_EDGE ( 'NONE', *, *, #145, .T. ) ;
#94 = CIRCLE ( 'NONE', #114, 19.05000000000000100 ) ;
#95 = PRODUCT_DEFINITION_FORMATION_WITH_SPECIFIED_SOURCE ( 'ANY', '', #49, .NOT_KNOWN. ) ;
#96 = CARTESIAN_POINT ( 'NONE',  ( -4.662936703425659800E-015, -8.881784197001250400E-016, 3.300000000000000300 ) ) ;
#97 = EDGE_LOOP ( 'NONE', ( #163, #21, #115 ) ) ;
#98 = CC_DESIGN_PERSON_AND_ORGANIZATION_ASSIGNMENT ( #24, #15, ( #84 ) ) ;
#99 = PERSON_AND_ORGANIZATION ( #104, #195 ) ;
#100 = AXIS2_PLACEMENT_3D ( 'NONE', #162, #68, #160 ) ;
#101 = CARTESIAN_POINT ( 'NONE',  ( 19.36521736845193300, -6.560922210782622200, -1.596342713130263200 ) ) ;
#102 = DIRECTION ( 'NONE',  ( 0.0000000000000000000, 0.0000000000000000000, 1.000000000000000000 ) ) ;
#103 = CARTESIAN_POINT ( 'NONE',  ( -19.05000000000000400, 1.444773732675583000E-015, -2.368011691101350000 ) ) ;
#104 = PERSON ( 'UNSPECIFIED', 'UNSPECIFIED', 'UNSPECIFIED', ('UNSPECIFIED'), ('UNSPECIFIED'), ('UNSPECIFIED') ) ;
#105 = EDGE_LOOP ( 'NONE', ( #53, #232, #148, #6, #137 ) ) ;
#106 = CARTESIAN_POINT ( 'NONE',  ( -13.02755578856424600, -6.560922210782624800, 0.01400113430185091800 ) ) ;
#107 = CARTESIAN_POINT ( 'NONE',  ( 19.04999999999999700, -8.881784197001250400E-016, -2.368011691101350000 ) ) ;
#108 = CARTESIAN_POINT ( 'NONE',  ( 18.56477212009259500, -19.27383488922829000, -4.746571222041593400 ) ) ;
#109 = UNCERTAINTY_MEASURE_WITH_UNIT (LENGTH_MEASURE( 1.000000000000000100E-005 ), #142, 'distance_accuracy_value', 'NONE');
#110 = CALENDAR_DATE ( 2019, 16, 1 ) ;
#111 = VERTEX_POINT ( 'NONE', #127 ) ;
#112 = CC_DESIGN_SECURITY_CLASSIFICATION ( #13, ( #95 ) ) ;
#113 = EDGE_CURVE ( 'NONE', #154, #111, #176, .T. ) ;
#114 = AXIS2_PLACEMENT_3D ( 'NONE', #96, #4, #135 ) ;
#115 = ORIENTED_EDGE ( 'NONE', *, *, #226, .F. ) ;
#116 = APPROVAL ( #89, 'UNSPECIFIED' ) ;
#117 = FACE_OUTER_BOUND ( 'NONE', #38, .T. ) ;
#118 = LOCAL_TIME ( 12, 7, 17.00000000000000000, #20 ) ;
#119 = CARTESIAN_POINT ( 'NONE',  ( -18.56477212009259900, 19.27383488922830100, -4.746571222041626300 ) ) ;
#120 = PERSON_AND_ORGANIZATION_ROLE ( 'design_owner' ) ;
#121 = PRODUCT_RELATED_PRODUCT_CATEGORY ( 'detail', '', ( #49 ) ) ;
#122 = APPLICATION_PROTOCOL_DEFINITION ( 'international standard', 'config_control_design', 1994, #141 ) ;
#123 = CARTESIAN_POINT ( 'NONE',  ( -6.938893903907228400E-015, 19.27383488922830100, -2.424886160046395100 ) ) ;
#124 = APPROVAL_PERSON_ORGANIZATION ( #126, #116, #206 ) ;
#125 = LOCAL_TIME ( 12, 7, 17.00000000000000000, #85 ) ;
#126 = PERSON_AND_ORGANIZATION ( #104, #195 ) ;
#127 = CARTESIAN_POINT ( 'NONE',  ( 19.04999999999999700, -8.881784197001250400E-016, 3.300000000000000300 ) ) ;
#128 = LOCAL_TIME ( 12, 7, 17.00000000000000000, #171 ) ;
#129 = CARTESIAN_POINT ( 'NONE',  ( -4.662936703425659800E-015, -8.881784197001250400E-016, -2.368011691101350000 ) ) ;
#130 = CARTESIAN_POINT ( 'NONE',  ( 2.131628207280300200E-014, -19.04999999999997600, -2.368011691101340700 ) ) ;
#131 = VECTOR ( 'NONE', #216, 1000.000000000000000 ) ;
#132 = CARTESIAN_POINT ( 'NONE',  ( -4.662936703425659800E-015, -8.881784197001250400E-016, 3.300000000000000300 ) ) ;
#133 = ADVANCED_FACE ( 'NONE', ( #117 ), #198, .T. ) ;
#134 = DATE_AND_TIME ( #136, #56 ) ;
#135 = DIRECTION ( 'NONE',  ( 1.000000000000000000, 0.0000000000000000000, 0.0000000000000000000 ) ) ;
#136 = CALENDAR_DATE ( 2019, 16, 1 ) ;
#137 = ORIENTED_EDGE ( 'NONE', *, *, #58, .T. ) ;
#138 = CARTESIAN_POINT ( 'NONE',  ( 13.02755578856424500, -6.560922210782623900, 0.01400113430186393200 ) ) ;
#139 = DATE_AND_TIME ( #177, #28 ) ;
#140 = CARTESIAN_POINT ( 'NONE',  ( -6.268762800355010400, -19.27383488922829400, -2.424886160046383100 ) ) ;
#141 = APPLICATION_CONTEXT ( 'configuration controlled 3d designs of mechanical parts and assemblies' ) ;
#142 =( LENGTH_UNIT ( ) NAMED_UNIT ( * ) SI_UNIT ( .MILLI., .METRE. ) );
#143 = ORIENTED_EDGE ( 'NONE', *, *, #32, .T. ) ;
#144 = CARTESIAN_POINT ( 'NONE',  ( -6.268762800355013100, 19.27383488922830400, -2.424886160046397300 ) ) ;
#145 = EDGE_CURVE ( 'NONE', #16, #1, #36, .T. ) ;
#146 = VECTOR ( 'NONE', #70, 1000.000000000000000 ) ;
#147 = ORIENTED_EDGE ( 'NONE', *, *, #8, .T. ) ;
#148 = ORIENTED_EDGE ( 'NONE', *, *, #226, .T. ) ;
#149 = CIRCLE ( 'NONE', #201, 19.05000000000000100 ) ;
#150 = CARTESIAN_POINT ( 'NONE',  ( 18.56477212009258800, 19.27383488922830100, -4.746571222041605000 ) ) ;
#151 = APPROVAL_DATE_TIME ( #196, #23 ) ;
#152 = DIRECTION ( 'NONE',  ( 1.000000000000000000, 0.0000000000000000000, -0.0000000000000000000 ) ) ;
#153 = CARTESIAN_POINT ( 'NONE',  ( 6.539048983464433600, 6.560922210782639000, 0.8254449390846938500 ) ) ;
#154 = VERTEX_POINT ( 'NONE', #234 ) ;
#155 = DIRECTION ( 'NONE',  ( 1.000000000000000000, 0.0000000000000000000, 0.0000000000000000000 ) ) ;
#156 = APPROVAL_STATUS ( 'not_yet_approved' ) ;
#157 = CC_DESIGN_APPROVAL ( #23, ( #84 ) ) ;
#158 = DATE_TIME_ROLE ( 'creation_date' ) ;
#159 = DIRECTION ( 'NONE',  ( 0.0000000000000000000, 0.0000000000000000000, 1.000000000000000000 ) ) ;
#160 = DIRECTION ( 'NONE',  ( 1.000000000000000000, 0.0000000000000000000, 0.0000000000000000000 ) ) ;
#161 = CARTESIAN_POINT ( 'NONE',  ( 2.131628207280300200E-014, 19.04999999999999700, -2.368011691101354900 ) ) ;
#162 = CARTESIAN_POINT ( 'NONE',  ( -4.662936703425659800E-015, -8.881784197001250400E-016, -2.368011691101350000 ) ) ;
#163 = ORIENTED_EDGE ( 'NONE', *, *, #145, .F. ) ;
#164 = CARTESIAN_POINT ( 'NONE',  ( 2.131628207280300200E-014, 19.27383488922830100, -2.424886160046393800 ) ) ;
#165 = CYLINDRICAL_SURFACE ( 'NONE', #92, 19.05000000000000100 ) ;
#166 = PERSON_AND_ORGANIZATION_ROLE ( 'classification_officer' ) ;
#167 = CARTESIAN_POINT ( 'NONE',  ( 0.0000000000000000000, 0.0000000000000000000, 0.0000000000000000000 ) ) ;
#168 = CALENDAR_DATE ( 2019, 16, 1 ) ;
#169 = DIRECTION ( 'NONE',  ( 1.000000000000000000, 0.0000000000000000000, 0.0000000000000000000 ) ) ;
#170 = CARTESIAN_POINT ( 'NONE',  ( -18.56477212009260200, -19.27383488922829000, -4.746571222041612100 ) ) ;
#171 = COORDINATED_UNIVERSAL_TIME_OFFSET ( 2, 0, .AHEAD. ) ;
#172 = PERSON_AND_ORGANIZATION_ROLE ( 'design_supplier' ) ;
#173 = DIRECTION ( 'NONE',  ( 1.000000000000000000, 0.0000000000000000000, 0.0000000000000000000 ) ) ;
#174 = LINE ( 'NONE', #19, #146 ) ;
#175 = CARTESIAN_POINT ( 'NONE',  ( 2.131628207280299900E-014, 2.131628207280299900E-014, -77.81000000000000200 ) ) ;
#176 = LINE ( 'NONE', #107, #131 ) ;
#177 = CALENDAR_DATE ( 2019, 16, 1 ) ;
#178 = AXIS2_PLACEMENT_3D ( 'NONE', #37, #43, #152 ) ;
#179 = DIRECTION ( 'NONE',  ( 0.0000000000000000000, 1.000000000000000000, 3.567096210722132400E-016 ) ) ;
#180 = CARTESIAN_POINT ( 'NONE',  ( -19.05000000000000400, 1.444773732675583000E-015, 3.300000000000000300 ) ) ;
#181 = ORIENTED_EDGE ( 'NONE', *, *, #229, .F. ) ;
#182 = ADVANCED_FACE ( 'NONE', ( #79 ), #52, .T. ) ;
#183 = CARTESIAN_POINT ( 'NONE',  ( -4.662936703425659800E-015, -8.881784197001250400E-016, -2.368011691101350000 ) ) ;
#184 = ORIENTED_EDGE ( 'NONE', *, *, #32, .F. ) ;
#185 = APPROVAL_PERSON_ORGANIZATION ( #214, #221, #48 ) ;
#186 = DATE_TIME_ROLE ( 'classification_date' ) ;
#187 = CARTESIAN_POINT ( 'NONE',  ( -12.48907254149878200, -19.27383488922829400, -3.202789606077205000 ) ) ;
#188 = CARTESIAN_POINT ( 'NONE',  ( 2.131628207280300200E-014, -19.27383488922829000, -2.424886160046380000 ) ) ;
#189 = AXIS2_PLACEMENT_3D ( 'NONE', #194, #74, #169 ) ;
#190 = CARTESIAN_POINT ( 'NONE',  ( -4.662936703425659800E-015, -8.881784197001250400E-016, -2.368011691101350000 ) ) ;
#191 = CARTESIAN_POINT ( 'NONE',  ( 0.0000000000000000000, -19.27383488922829000, -2.424886160046381400 ) ) ;
#192 = CC_DESIGN_PERSON_AND_ORGANIZATION_ASSIGNMENT ( #99, #120, ( #49 ) ) ;
#193 = SECURITY_CLASSIFICATION_LEVEL ( 'unclassified' ) ;
#194 = CARTESIAN_POINT ( 'NONE',  ( -4.662936703425659800E-015, -8.881784197001250400E-016, -2.368011691101350000 ) ) ;
#195 = ORGANIZATION ( 'UNSPECIFIED', 'UNSPECIFIED', '' ) ;
#196 = DATE_AND_TIME ( #220, #128 ) ;
#197 = CARTESIAN_POINT ( 'NONE',  ( 6.268762800355017500, 19.27383488922830400, -2.424886160046393800 ) ) ;
#198 = CYLINDRICAL_SURFACE ( 'NONE', #189, 19.05000000000000100 ) ;
#199 = PERSON_AND_ORGANIZATION ( #104, #195 ) ;
#200 = ORIENTED_EDGE ( 'NONE', *, *, #65, .T. ) ;
#201 = AXIS2_PLACEMENT_3D ( 'NONE', #209, #211, #228 ) ;
#202 = PRODUCT_DEFINITION_SHAPE ( 'NONE', 'NONE',  #84 ) ;
#203 = CARTESIAN_POINT ( 'NONE',  ( 6.539048983464434500, -6.560922210782623900, 0.8254449390847128400 ) ) ;
#204 = CARTESIAN_POINT ( 'NONE',  ( 2.131628207280300200E-014, -6.560922210782623900, 0.8254449390847130600 ) ) ;
#205 = FACE_OUTER_BOUND ( 'NONE', #212, .T. ) ;
#206 = APPROVAL_ROLE ( '' ) ;
#207 = ORIENTED_EDGE ( 'NONE', *, *, #113, .F. ) ;
#208 = CARTESIAN_POINT ( 'NONE',  ( -13.02755578856424800, 6.560922210782638200, 0.01400113430183140600 ) ) ;
#209 = CARTESIAN_POINT ( 'NONE',  ( -4.662936703425659800E-015, -8.881784197001250400E-016, -2.368011691101350000 ) ) ;
#210 = DIRECTION ( 'NONE',  ( 1.000000000000000000, 0.0000000000000000000, 0.0000000000000000000 ) ) ;
#211 = DIRECTION ( 'NONE',  ( 0.0000000000000000000, 0.0000000000000000000, 1.000000000000000000 ) ) ;
#212 = EDGE_LOOP ( 'NONE', ( #60, #93, #181 ) ) ;
#213 = CARTESIAN_POINT ( 'NONE',  ( 12.48907254149878600, -19.27383488922829400, -3.202789606077192500 ) ) ;
#214 = PERSON_AND_ORGANIZATION ( #104, #195 ) ;
#215 = CIRCLE ( 'NONE', #91, 19.05000000000000100 ) ;
#216 = DIRECTION ( 'NONE',  ( 0.0000000000000000000, 0.0000000000000000000, 1.000000000000000000 ) ) ;
#217 = DATE_AND_TIME ( #110, #118 ) ;
#218 = ADVANCED_BREP_SHAPE_REPRESENTATION ( '112-0411E BK7 pl-cv 38.1 F-150', ( #62, #72 ), #46 ) ;
#219 = AXIS2_PLACEMENT_3D ( 'NONE', #175, #233, #179 ) ;
#220 = CALENDAR_DATE ( 2019, 16, 1 ) ;
#221 = APPROVAL ( #90, 'UNSPECIFIED' ) ;
#222 = CIRCLE ( 'NONE', #76, 19.05000000000000100 ) ;
#223 = DIRECTION ( 'NONE',  ( 1.000000000000000000, 0.0000000000000000000, 0.0000000000000000000 ) ) ;
#224 = ADVANCED_FACE ( 'NONE', ( #205 ), #88, .F. ) ;
#225 = CC_DESIGN_APPROVAL ( #116, ( #13 ) ) ;
#226 = EDGE_CURVE ( 'NONE', #1, #154, #215, .T. ) ;
#227 = VERTEX_POINT ( 'NONE', #103 ) ;
#228 = DIRECTION ( 'NONE',  ( 1.000000000000000000, 0.0000000000000000000, 0.0000000000000000000 ) ) ;
#229 = EDGE_CURVE ( 'NONE', #227, #1, #149, .T. ) ;
#230 = CC_DESIGN_PERSON_AND_ORGANIZATION_ASSIGNMENT ( #199, #166, ( #13 ) ) ;
#231 = CARTESIAN_POINT ( 'NONE',  ( -6.539048983464426500, -6.560922210782624800, 0.8254449390847103900 ) ) ;
#232 = ORIENTED_EDGE ( 'NONE', *, *, #229, .T. ) ;
#233 = DIRECTION ( 'NONE',  ( 1.000000000000000000, 0.0000000000000000000, 0.0000000000000000000 ) ) ;
#234 = CARTESIAN_POINT ( 'NONE',  ( 19.04999999999999700, -8.881784197001250400E-016, -2.368011691101350000 ) ) ;
#235 =( BOUNDED_SURFACE ( )  B_SPLINE_SURFACE ( 3, 3, ( 
 ( #164, #197, #25, #150 ),
 ( #39, #153, #87, #86 ),
 ( #204, #203, #138, #101 ),
 ( #188, #30, #213, #108 ) ),
 .UNSPECIFIED., .F., .F., .F. ) 
 B_SPLINE_SURFACE_WITH_KNOTS ( ( 4, 4 ),
 ( 4, 4 ),
 ( 0.0000000000000000000, 1.000000000000000000 ),
 ( 0.0000000000000000000, 1.000000000000000000 ),
 .UNSPECIFIED. ) 
 GEOMETRIC_REPRESENTATION_ITEM ( )  RATIONAL_B_SPLINE_SURFACE ( (
 ( 1.000000000000000000, 0.9948471428090522900, 0.9948471428090522900, 1.000000000000000000),
 ( 0.9792238687396960200, 0.9741780679861130600, 0.9741780679861130600, 0.9792238687396960200),
 ( 0.9792238687396960200, 0.9741780679861130600, 0.9741780679861130600, 0.9792238687396960200),
 ( 1.000000000000000000, 0.9948471428090522900, 0.9948471428090522900, 1.000000000000000000) ) ) 
 REPRESENTATION_ITEM ( '' )  SURFACE ( )  );
ENDSEC;
END-ISO-10303-21;
