ISO-10303-21;
HEADER;
FILE_DESCRIPTION (( 'STEP AP203' ),
    '1' );
FILE_NAME ('112-0409E BK7 pl-cv 38.1 F-100.STEP',
    '2019-01-15T14:01:14',
    ( '' ),
    ( '' ),
    'SwSTEP 2.0',
    'SolidWorks 2017',
    '' );
FILE_SCHEMA (( 'CONFIG_CONTROL_DESIGN' ));
ENDSEC;

DATA;
#1 = COORDINATED_UNIVERSAL_TIME_OFFSET ( 2, 0, .AHEAD. ) ;
#2 = LOCAL_TIME ( 16, 1, 14.00000000000000000, #1 ) ;
#3 = CIRCLE ( 'NONE', #163, 19.05000000000000100 ) ;
#4 = DIRECTION ( 'NONE',  ( -2.331176954593499900E-017, -1.086877198725570000E-033, 1.000000000000000000 ) ) ;
#5 = EDGE_CURVE ( 'NONE', #233, #53, #213, .T. ) ;
#6 = CARTESIAN_POINT ( 'NONE',  ( -4.662936703425659800E-015, -8.881784197001250400E-016, -3.622598454349270200 ) ) ;
#7 = DIRECTION ( 'NONE',  ( -2.331176954593499900E-017, -1.086877198725570000E-033, 1.000000000000000000 ) ) ;
#8 = CARTESIAN_POINT ( 'NONE',  ( -3.552713678800500100E-015, -19.05000000000000400, -3.622598454349267500 ) ) ;
#9 = AXIS2_PLACEMENT_3D ( 'NONE', #191, #127, #59 ) ;
#10 = CIRCLE ( 'NONE', #199, 19.05000000000000100 ) ;
#11 = APPLICATION_PROTOCOL_DEFINITION ( 'international standard', 'config_control_design', 1994, #153 ) ;
#12 = DATE_AND_TIME ( #98, #216 ) ;
#13 = COORDINATED_UNIVERSAL_TIME_OFFSET ( 2, 0, .AHEAD. ) ;
#14 = CIRCLE ( 'NONE', #214, 19.05000000000000100 ) ;
#15 = AXIS2_PLACEMENT_3D ( 'NONE', #211, #28, #88 ) ;
#16 = MANIFOLD_SOLID_BREP ( 'Imported1', #172 ) ;
#17 = CC_DESIGN_DATE_AND_TIME_ASSIGNMENT ( #12, #155, ( #168 ) ) ;
#18 = SHAPE_DEFINITION_REPRESENTATION ( #103, #50 ) ;
#19 = CARTESIAN_POINT ( 'NONE',  ( -13.36956359348715800, -6.743808162349242100, 0.03067325906096294400 ) ) ;
#20 = EDGE_LOOP ( 'NONE', ( #181, #72, #84 ) ) ;
#21 = DIRECTION ( 'NONE',  ( 1.000000000000000000, 0.0000000000000000000, 2.276539994720219300E-017 ) ) ;
#22 = CARTESIAN_POINT ( 'NONE',  ( 12.11117574436645600, -19.26753921374521300, -4.857214649089787200 ) ) ;
#23 = COORDINATED_UNIVERSAL_TIME_OFFSET ( 2, 0, .AHEAD. ) ;
#24 = PRODUCT_RELATED_PRODUCT_CATEGORY ( 'detail', '', ( #113 ) ) ;
#25 = ORIENTED_EDGE ( 'NONE', *, *, #5, .F. ) ;
#26 = DIRECTION ( 'NONE',  ( 1.000000000000000000, 0.0000000000000000000, 2.276539994720219300E-017 ) ) ;
#27 = DIRECTION ( 'NONE',  ( 1.000000000000000000, 0.0000000000000000000, 2.276539994720219300E-017 ) ) ;
#28 = DIRECTION ( 'NONE',  ( 1.000000000000000000, 0.0000000000000000000, 0.0000000000000000000 ) ) ;
#29 = CARTESIAN_POINT ( 'NONE',  ( 6.110016271332869800, -19.26753921374521300, -3.709005689373968500 ) ) ;
#30 = CC_DESIGN_PERSON_AND_ORGANIZATION_ASSIGNMENT ( #94, #35, ( #113 ) ) ;
#31 = FACE_OUTER_BOUND ( 'NONE', #228, .T. ) ;
#32 = APPROVAL_STATUS ( 'not_yet_approved' ) ;
#33 = APPROVAL_ROLE ( '' ) ;
#34 = ORIENTED_EDGE ( 'NONE', *, *, #140, .T. ) ;
#35 = PERSON_AND_ORGANIZATION_ROLE ( 'design_owner' ) ;
#36 = FACE_OUTER_BOUND ( 'NONE', #180, .T. ) ;
#37 = CC_DESIGN_SECURITY_CLASSIFICATION ( #137, ( #42 ) ) ;
#38 = ORIENTED_EDGE ( 'NONE', *, *, #229, .F. ) ;
#39 = CARTESIAN_POINT ( 'NONE',  ( -6.744865471448851400, -6.743808162349242100, 1.298184608045636700 ) ) ;
#40 = CARTESIAN_POINT ( 'NONE',  ( -19.05000000000000400, 1.444773732675583000E-015, -3.622598454349271100 ) ) ;
#41 = CARTESIAN_POINT ( 'NONE',  ( 6.110016271332869000, 19.26753921374519200, -3.709005689373976000 ) ) ;
#42 = PRODUCT_DEFINITION_FORMATION_WITH_SPECIFIED_SOURCE ( 'ANY', '', #113, .NOT_KNOWN. ) ;
#43 = CARTESIAN_POINT ( 'NONE',  ( 13.36956359348713300, 6.743808162349226100, 0.03067325906096684400 ) ) ;
#44 = CARTESIAN_POINT ( 'NONE',  ( 6.744865471448833600, 6.743808162349226100, 1.298184608045637200 ) ) ;
#45 = CIRCLE ( 'NONE', #204, 19.05000000000000100 ) ;
#46 = APPROVAL_STATUS ( 'not_yet_approved' ) ;
#47 = PERSON_AND_ORGANIZATION ( #232, #189 ) ;
#48 = ADVANCED_FACE ( 'NONE', ( #66 ), #198, .F. ) ;
#49 = LOCAL_TIME ( 16, 1, 14.00000000000000000, #13 ) ;
#50 = ADVANCED_BREP_SHAPE_REPRESENTATION ( '112-0409E BK7 pl-cv 38.1 F-100', ( #16, #124 ), #67 ) ;
#51 = CC_DESIGN_APPROVAL ( #179, ( #42 ) ) ;
#52 = PERSON_AND_ORGANIZATION ( #232, #189 ) ;
#53 = VERTEX_POINT ( 'NONE', #206 ) ;
#54 = CARTESIAN_POINT ( 'NONE',  ( -1.040834085586084300E-014, 6.743808162349227000, 1.298184608045639600 ) ) ;
#55 = CALENDAR_DATE ( 2019, 15, 1 ) ;
#56 = CARTESIAN_POINT ( 'NONE',  ( -17.78964363460671500, -19.26753921374521300, -7.112719305583118200 ) ) ;
#57 = DIRECTION ( 'NONE',  ( 1.000000000000000000, 0.0000000000000000000, 2.276539994720219300E-017 ) ) ;
#58 = DESIGN_CONTEXT ( 'detailed design', #115, 'design' ) ;
#59 = DIRECTION ( 'NONE',  ( 1.000000000000000000, 0.0000000000000000000, -0.0000000000000000000 ) ) ;
#60 = CARTESIAN_POINT ( 'NONE',  ( 13.36956359348713300, -6.743808162349242100, 0.03067325906096945000 ) ) ;
#61 = PERSON_AND_ORGANIZATION ( #232, #189 ) ;
#62 = ORIENTED_EDGE ( 'NONE', *, *, #182, .T. ) ;
#63 = CARTESIAN_POINT ( 'NONE',  ( -3.552713678800500100E-015, 19.26753921374519500, -3.709005689373976000 ) ) ;
#64 =( NAMED_UNIT ( * ) PLANE_ANGLE_UNIT ( ) SI_UNIT ( $, .RADIAN. ) );
#65 = CC_DESIGN_PERSON_AND_ORGANIZATION_ASSIGNMENT ( #138, #194, ( #42 ) ) ;
#66 = FACE_OUTER_BOUND ( 'NONE', #159, .T. ) ;
#67 =( GEOMETRIC_REPRESENTATION_CONTEXT ( 3 ) GLOBAL_UNCERTAINTY_ASSIGNED_CONTEXT ( ( #226 ) ) GLOBAL_UNIT_ASSIGNED_CONTEXT ( ( #192, #64, #136 ) ) REPRESENTATION_CONTEXT ( 'NONE', 'WORKASPACE' ) );
#68 = ORIENTED_EDGE ( 'NONE', *, *, #229, .T. ) ;
#69 = CARTESIAN_POINT ( 'NONE',  ( -13.36956359348715200, 6.743808162349226100, 0.03067325906096684400 ) ) ;
#70 = FACE_OUTER_BOUND ( 'NONE', #20, .T. ) ;
#71 = EDGE_CURVE ( 'NONE', #169, #78, #14, .T. ) ;
#72 = ORIENTED_EDGE ( 'NONE', *, *, #140, .F. ) ;
#73 = CC_DESIGN_PERSON_AND_ORGANIZATION_ASSIGNMENT ( #52, #234, ( #42 ) ) ;
#74 = CARTESIAN_POINT ( 'NONE',  ( 19.63804149972636300, -6.743808162349242100, -2.459185164009189500 ) ) ;
#75 = CARTESIAN_POINT ( 'NONE',  ( -3.552713678800500100E-015, 6.743808162349227000, 1.298184608045637200 ) ) ;
#76 = CARTESIAN_POINT ( 'NONE',  ( 19.63804149972635900, 6.743808162349227000, -2.459185164009191700 ) ) ;
#77 = ADVANCED_FACE ( 'NONE', ( #119 ), #149, .T. ) ;
#78 = VERTEX_POINT ( 'NONE', #40 ) ;
#79 = CARTESIAN_POINT ( 'NONE',  ( -4.662936703425659800E-015, -8.881784197001250400E-016, -3.622598454349270600 ) ) ;
#80 = PERSON_AND_ORGANIZATION_ROLE ( 'classification_officer' ) ;
#81 = DATE_AND_TIME ( #108, #2 ) ;
#82 = ORIENTED_EDGE ( 'NONE', *, *, #97, .T. ) ;
#83 = APPROVAL ( #118, 'UNSPECIFIED' ) ;
#84 = ORIENTED_EDGE ( 'NONE', *, *, #133, .F. ) ;
#85 = LINE ( 'NONE', #142, #201 ) ;
#86 = CARTESIAN_POINT ( 'NONE',  ( -12.11117574436647900, -19.26753921374521300, -4.857214649089793400 ) ) ;
#87 = APPROVAL_PERSON_ORGANIZATION ( #157, #179, #178 ) ;
#88 = DIRECTION ( 'NONE',  ( 0.0000000000000000000, 1.000000000000000000, 0.0000000000000000000 ) ) ;
#89 = CARTESIAN_POINT ( 'NONE',  ( 17.78964363460669400, -19.26753921374521300, -7.112719305583110200 ) ) ;
#90 = LOCAL_TIME ( 16, 1, 14.00000000000000000, #208 ) ;
#91 = AXIS2_PLACEMENT_3D ( 'NONE', #146, #123, #104 ) ;
#92 = MECHANICAL_CONTEXT ( 'NONE', #153, 'mechanical' ) ;
#93 = DIRECTION ( 'NONE',  ( 1.000000000000000000, 0.0000000000000000000, 0.0000000000000000000 ) ) ;
#94 = PERSON_AND_ORGANIZATION ( #232, #189 ) ;
#95 = CYLINDRICAL_SURFACE ( 'NONE', #160, 19.05000000000000100 ) ;
#96 = APPROVAL_DATE_TIME ( #154, #122 ) ;
#97 = EDGE_CURVE ( 'NONE', #78, #219, #85, .T. ) ;
#98 = CALENDAR_DATE ( 2019, 15, 1 ) ;
#99 = ORIENTED_EDGE ( 'NONE', *, *, #117, .F. ) ;
#100 = CARTESIAN_POINT ( 'NONE',  ( -1.040834085586084300E-014, 19.26753921374519500, -3.709005689373971600 ) ) ;
#101 = CALENDAR_DATE ( 2019, 15, 1 ) ;
#102 = CARTESIAN_POINT ( 'NONE',  ( -19.63804149972638800, -6.743808162349242100, -2.459185164009197500 ) ) ;
#103 = PRODUCT_DEFINITION_SHAPE ( 'NONE', 'NONE',  #168 ) ;
#104 = DIRECTION ( 'NONE',  ( 1.000000000000000000, 0.0000000000000000000, 2.276539994720219300E-017 ) ) ;
#105 = CC_DESIGN_APPROVAL ( #83, ( #137 ) ) ;
#106 = DIRECTION ( 'NONE',  ( 2.331176954593499900E-017, 1.086877198725570000E-033, -1.000000000000000000 ) ) ;
#107 = DIRECTION ( 'NONE',  ( -2.331176954593499900E-017, -1.086877198725570000E-033, 1.000000000000000000 ) ) ;
#108 = CALENDAR_DATE ( 2019, 15, 1 ) ;
#109 = VERTEX_POINT ( 'NONE', #8 ) ;
#110 = AXIS2_PLACEMENT_3D ( 'NONE', #132, #106, #111 ) ;
#111 = DIRECTION ( 'NONE',  ( 1.000000000000000000, 0.0000000000000000000, 2.276539994720219300E-017 ) ) ;
#112 = DIRECTION ( 'NONE',  ( -2.331176954593499900E-017, -1.086877198725570000E-033, 1.000000000000000000 ) ) ;
#113 = PRODUCT ( '112-0409E BK7 pl-cv 38.1 F-100', '112-0409E BK7 pl-cv 38.1 F-100', '', ( #92 ) ) ;
#114 = CIRCLE ( 'NONE', #110, 19.05000000000000100 ) ;
#115 = APPLICATION_CONTEXT ( 'configuration controlled 3d designs of mechanical parts and assemblies' ) ;
#116 = ADVANCED_FACE ( 'NONE', ( #36 ), #95, .T. ) ;
#117 = EDGE_CURVE ( 'NONE', #53, #219, #114, .T. ) ;
#118 = APPROVAL_STATUS ( 'not_yet_approved' ) ;
#119 = FACE_OUTER_BOUND ( 'NONE', #224, .T. ) ;
#120 = LOCAL_TIME ( 16, 1, 14.00000000000000000, #161 ) ;
#121 = ORIENTED_EDGE ( 'NONE', *, *, #71, .F. ) ;
#122 = APPROVAL ( #32, 'UNSPECIFIED' ) ;
#123 = DIRECTION ( 'NONE',  ( -2.331176954593499900E-017, -1.086877198725570000E-033, 1.000000000000000000 ) ) ;
#124 = AXIS2_PLACEMENT_3D ( 'NONE', #215, #231, #93 ) ;
#125 = DATE_AND_TIME ( #55, #120 ) ;
#126 = ORIENTED_EDGE ( 'NONE', *, *, #117, .T. ) ;
#127 = DIRECTION ( 'NONE',  ( 0.0000000000000000000, 0.0000000000000000000, 1.000000000000000000 ) ) ;
#128 = CARTESIAN_POINT ( 'NONE',  ( 12.11117574436645800, 19.26753921374519200, -4.857214649089793400 ) ) ;
#129 = DIRECTION ( 'NONE',  ( 1.000000000000000000, 0.0000000000000000000, 2.276539994720219300E-017 ) ) ;
#130 = PLANE ( 'NONE',  #9 ) ;
#131 = CALENDAR_DATE ( 2019, 15, 1 ) ;
#132 = CARTESIAN_POINT ( 'NONE',  ( -4.794009422842780300E-015, -8.881784197001250400E-016, 1.999999999999998200 ) ) ;
#133 = EDGE_CURVE ( 'NONE', #109, #233, #45, .T. ) ;
#134 = APPROVAL_DATE_TIME ( #81, #83 ) ;
#135 = ORIENTED_EDGE ( 'NONE', *, *, #5, .T. ) ;
#136 =( NAMED_UNIT ( * ) SI_UNIT ( $, .STERADIAN. ) SOLID_ANGLE_UNIT ( ) );
#137 = SECURITY_CLASSIFICATION ( '', '', #196 ) ;
#138 = PERSON_AND_ORGANIZATION ( #232, #189 ) ;
#139 = PERSON_AND_ORGANIZATION ( #232, #189 ) ;
#140 = EDGE_CURVE ( 'NONE', #233, #169, #197, .T. ) ;
#141 = CIRCLE ( 'NONE', #15, 51.89999999999999100 ) ;
#142 = CARTESIAN_POINT ( 'NONE',  ( -19.05000000000000400, 1.444773732675583000E-015, -3.622598454349270600 ) ) ;
#143 = CARTESIAN_POINT ( 'NONE',  ( 19.04999999999999700, -8.881784197001250400E-016, -3.622598454349269700 ) ) ;
#144 = CARTESIAN_POINT ( 'NONE',  ( -1.387778780781445700E-014, -19.26753921374521300, -3.709005689373970700 ) ) ;
#145 = DATE_AND_TIME ( #101, #49 ) ;
#146 = CARTESIAN_POINT ( 'NONE',  ( -4.662936703425659800E-015, -8.881784197001250400E-016, -3.622598454349270200 ) ) ;
#147 = DIRECTION ( 'NONE',  ( -2.331176954593499900E-017, -1.086877198725570000E-033, 1.000000000000000000 ) ) ;
#148 = CC_DESIGN_PERSON_AND_ORGANIZATION_ASSIGNMENT ( #61, #80, ( #137 ) ) ;
#149 = CYLINDRICAL_SURFACE ( 'NONE', #91, 19.05000000000000100 ) ;
#150 = CARTESIAN_POINT ( 'NONE',  ( -3.552713678800500100E-015, 19.04999999999999000, -3.622598454349267500 ) ) ;
#151 = CARTESIAN_POINT ( 'NONE',  ( -19.05000000000000400, 1.444773732675583000E-015, 1.999999999999997800 ) ) ;
#152 = DIRECTION ( 'NONE',  ( 1.000000000000000000, 0.0000000000000000000, 2.276539994720219300E-017 ) ) ;
#153 = APPLICATION_CONTEXT ( 'configuration controlled 3d designs of mechanical parts and assemblies' ) ;
#154 = DATE_AND_TIME ( #131, #90 ) ;
#155 = DATE_TIME_ROLE ( 'creation_date' ) ;
#156 = APPLICATION_PROTOCOL_DEFINITION ( 'international standard', 'config_control_design', 1994, #115 ) ;
#157 = PERSON_AND_ORGANIZATION ( #232, #189 ) ;
#158 = APPROVAL_ROLE ( '' ) ;
#159 = EDGE_LOOP ( 'NONE', ( #121, #62, #38 ) ) ;
#160 = AXIS2_PLACEMENT_3D ( 'NONE', #6, #167, #57 ) ;
#161 = COORDINATED_UNIVERSAL_TIME_OFFSET ( 2, 0, .AHEAD. ) ;
#162 = ORIENTED_EDGE ( 'NONE', *, *, #186, .F. ) ;
#163 = AXIS2_PLACEMENT_3D ( 'NONE', #171, #112, #152 ) ;
#164 = CARTESIAN_POINT ( 'NONE',  ( -1.387778780781445400E-014, -6.743808162349242100, 1.298184608045638300 ) ) ;
#165 = ORIENTED_EDGE ( 'NONE', *, *, #71, .T. ) ;
#166 = CARTESIAN_POINT ( 'NONE',  ( -12.11117574436647500, 19.26753921374519200, -4.857214649089793400 ) ) ;
#167 = DIRECTION ( 'NONE',  ( -2.331176954593499900E-017, -1.086877198725570000E-033, 1.000000000000000000 ) ) ;
#168 = PRODUCT_DEFINITION ( 'UNKNOWN', '', #42, #58 ) ;
#169 = VERTEX_POINT ( 'NONE', #150 ) ;
#170 = CARTESIAN_POINT ( 'NONE',  ( 6.744865471448834500, -6.743808162349242100, 1.298184608045639600 ) ) ;
#171 = CARTESIAN_POINT ( 'NONE',  ( -4.662936703425659800E-015, -8.881784197001250400E-016, -3.622598454349270600 ) ) ;
#172 = CLOSED_SHELL ( 'NONE', ( #48, #116, #195, #77, #235 ) ) ;
#173 = CARTESIAN_POINT ( 'NONE',  ( -4.794009422842780300E-015, -8.881784197001250400E-016, 1.999999999999998200 ) ) ;
#174 = PERSON_AND_ORGANIZATION_ROLE ( 'creator' ) ;
#175 =( BOUNDED_SURFACE ( )  B_SPLINE_SURFACE ( 3, 3, ( 
 ( #63, #41, #128, #225 ),
 ( #75, #44, #43, #76 ),
 ( #212, #170, #60, #74 ),
 ( #190, #29, #22, #89 ) ),
 .UNSPECIFIED., .F., .F., .F. ) 
 B_SPLINE_SURFACE_WITH_KNOTS ( ( 4, 4 ),
 ( 4, 4 ),
 ( 0.0000000000000000000, 1.000000000000000000 ),
 ( 0.0000000000000000000, 1.000000000000000000 ),
 .UNSPECIFIED. ) 
 GEOMETRIC_REPRESENTATION_ITEM ( )  RATIONAL_B_SPLINE_SURFACE ( (
 ( 1.000000000000000000, 0.9881225850073950300, 0.9881225850073950300, 1.000000000000000000),
 ( 0.9523570239001416500, 0.9410454843061574200, 0.9410454843061574200, 0.9523570239001416500),
 ( 0.9523570239001416500, 0.9410454843061574200, 0.9410454843061574200, 0.9523570239001416500),
 ( 1.000000000000000000, 0.9881225850073950300, 0.9881225850073950300, 1.000000000000000000) ) ) 
 REPRESENTATION_ITEM ( '' )  SURFACE ( )  );
#176 = APPROVAL_PERSON_ORGANIZATION ( #47, #83, #158 ) ;
#177 = ORIENTED_EDGE ( 'NONE', *, *, #97, .F. ) ;
#178 = APPROVAL_ROLE ( '' ) ;
#179 = APPROVAL ( #46, 'UNSPECIFIED' ) ;
#180 = EDGE_LOOP ( 'NONE', ( #34, #165, #82, #209, #25 ) ) ;
#181 = ORIENTED_EDGE ( 'NONE', *, *, #182, .F. ) ;
#182 = EDGE_CURVE ( 'NONE', #169, #109, #141, .T. ) ;
#183 = CARTESIAN_POINT ( 'NONE',  ( -4.662936703425659800E-015, -8.881784197001250400E-016, -3.622598454349270600 ) ) ;
#184 = AXIS2_PLACEMENT_3D ( 'NONE', #210, #147, #26 ) ;
#185 = DIRECTION ( 'NONE',  ( -2.331176954593499900E-017, -1.086877198725570000E-033, 1.000000000000000000 ) ) ;
#186 = EDGE_CURVE ( 'NONE', #219, #53, #10, .T. ) ;
#187 = DIRECTION ( 'NONE',  ( 2.331176954593499900E-017, 1.086877198725570000E-033, -1.000000000000000000 ) ) ;
#188 = APPROVAL_PERSON_ORGANIZATION ( #139, #122, #33 ) ;
#189 = ORGANIZATION ( 'UNSPECIFIED', 'UNSPECIFIED', '' ) ;
#190 = CARTESIAN_POINT ( 'NONE',  ( -3.552713678800500100E-015, -19.26753921374521300, -3.709005689373968900 ) ) ;
#191 = CARTESIAN_POINT ( 'NONE',  ( 0.0000000000000000000, 39.06600000000000300, 2.000000000000000000 ) ) ;
#192 =( LENGTH_UNIT ( ) NAMED_UNIT ( * ) SI_UNIT ( .MILLI., .METRE. ) );
#193 = PERSON_AND_ORGANIZATION ( #232, #189 ) ;
#194 = PERSON_AND_ORGANIZATION_ROLE ( 'creator' ) ;
#195 = ADVANCED_FACE ( 'NONE', ( #70 ), #175, .F. ) ;
#196 = SECURITY_CLASSIFICATION_LEVEL ( 'unclassified' ) ;
#197 = CIRCLE ( 'NONE', #184, 19.05000000000000100 ) ;
#198 =( BOUNDED_SURFACE ( )  B_SPLINE_SURFACE ( 3, 3, ( 
 ( #205, #166, #222, #100 ),
 ( #203, #69, #223, #54 ),
 ( #102, #19, #39, #164 ),
 ( #56, #86, #221, #144 ) ),
 .UNSPECIFIED., .F., .F., .F. ) 
 B_SPLINE_SURFACE_WITH_KNOTS ( ( 4, 4 ),
 ( 4, 4 ),
 ( 0.0000000000000000000, 1.000000000000000000 ),
 ( 0.0000000000000000000, 1.000000000000000000 ),
 .UNSPECIFIED. ) 
 GEOMETRIC_REPRESENTATION_ITEM ( )  RATIONAL_B_SPLINE_SURFACE ( (
 ( 1.000000000000000000, 0.9881225850073950300, 0.9881225850073950300, 1.000000000000000000),
 ( 0.9523570239001416500, 0.9410454843061574200, 0.9410454843061574200, 0.9523570239001416500),
 ( 0.9523570239001416500, 0.9410454843061574200, 0.9410454843061574200, 0.9523570239001416500),
 ( 1.000000000000000000, 0.9881225850073950300, 0.9881225850073950300, 1.000000000000000000) ) ) 
 REPRESENTATION_ITEM ( '' )  SURFACE ( )  );
#199 = AXIS2_PLACEMENT_3D ( 'NONE', #173, #187, #129 ) ;
#200 = APPROVAL_DATE_TIME ( #125, #179 ) ;
#201 = VECTOR ( 'NONE', #185, 1000.000000000000000 ) ;
#202 = CC_DESIGN_DATE_AND_TIME_ASSIGNMENT ( #145, #230, ( #137 ) ) ;
#203 = CARTESIAN_POINT ( 'NONE',  ( -19.63804149972638100, 6.743808162349227000, -2.459185164009193500 ) ) ;
#204 = AXIS2_PLACEMENT_3D ( 'NONE', #79, #107, #27 ) ;
#205 = CARTESIAN_POINT ( 'NONE',  ( -17.78964363460671200, 19.26753921374519500, -7.112719305583118200 ) ) ;
#206 = CARTESIAN_POINT ( 'NONE',  ( 19.04999999999999700, -8.881784197001250400E-016, 1.999999999999998700 ) ) ;
#207 = CC_DESIGN_APPROVAL ( #122, ( #168 ) ) ;
#208 = COORDINATED_UNIVERSAL_TIME_OFFSET ( 2, 0, .AHEAD. ) ;
#209 = ORIENTED_EDGE ( 'NONE', *, *, #186, .T. ) ;
#210 = CARTESIAN_POINT ( 'NONE',  ( -4.662936703425659800E-015, -8.881784197001250400E-016, -3.622598454349270600 ) ) ;
#211 = CARTESIAN_POINT ( 'NONE',  ( -3.552713678800500100E-015, -1.776356839400250100E-014, -51.89999999999999900 ) ) ;
#212 = CARTESIAN_POINT ( 'NONE',  ( -3.552713678800500100E-015, -6.743808162349242100, 1.298184608045639600 ) ) ;
#213 = LINE ( 'NONE', #143, #220 ) ;
#214 = AXIS2_PLACEMENT_3D ( 'NONE', #183, #7, #21 ) ;
#215 = CARTESIAN_POINT ( 'NONE',  ( 0.0000000000000000000, 0.0000000000000000000, 0.0000000000000000000 ) ) ;
#216 = LOCAL_TIME ( 16, 1, 14.00000000000000000, #23 ) ;
#217 = ORIENTED_EDGE ( 'NONE', *, *, #133, .T. ) ;
#218 = CC_DESIGN_PERSON_AND_ORGANIZATION_ASSIGNMENT ( #193, #174, ( #168 ) ) ;
#219 = VERTEX_POINT ( 'NONE', #151 ) ;
#220 = VECTOR ( 'NONE', #4, 1000.000000000000000 ) ;
#221 = CARTESIAN_POINT ( 'NONE',  ( -6.110016271332887600, -19.26753921374521300, -3.709005689373971600 ) ) ;
#222 = CARTESIAN_POINT ( 'NONE',  ( -6.110016271332884100, 19.26753921374519200, -3.709005689373972000 ) ) ;
#223 = CARTESIAN_POINT ( 'NONE',  ( -6.744865471448848700, 6.743808162349226100, 1.298184608045638700 ) ) ;
#224 = EDGE_LOOP ( 'NONE', ( #177, #68, #217, #135, #126 ) ) ;
#225 = CARTESIAN_POINT ( 'NONE',  ( 17.78964363460669400, 19.26753921374519500, -7.112719305583116400 ) ) ;
#226 = UNCERTAINTY_MEASURE_WITH_UNIT (LENGTH_MEASURE( 1.000000000000000100E-005 ), #192, 'distance_accuracy_value', 'NONE');
#227 = CARTESIAN_POINT ( 'NONE',  ( 19.04999999999999700, -8.881784197001250400E-016, -3.622598454349270200 ) ) ;
#228 = EDGE_LOOP ( 'NONE', ( #99, #162 ) ) ;
#229 = EDGE_CURVE ( 'NONE', #78, #109, #3, .T. ) ;
#230 = DATE_TIME_ROLE ( 'classification_date' ) ;
#231 = DIRECTION ( 'NONE',  ( 0.0000000000000000000, 0.0000000000000000000, 1.000000000000000000 ) ) ;
#232 = PERSON ( 'UNSPECIFIED', 'UNSPECIFIED', 'UNSPECIFIED', ('UNSPECIFIED'), ('UNSPECIFIED'), ('UNSPECIFIED') ) ;
#233 = VERTEX_POINT ( 'NONE', #227 ) ;
#234 = PERSON_AND_ORGANIZATION_ROLE ( 'design_supplier' ) ;
#235 = ADVANCED_FACE ( 'NONE', ( #31 ), #130, .T. ) ;
ENDSEC;
END-ISO-10303-21;
