ISO-10303-21;
HEADER;
FILE_DESCRIPTION (( 'STEP AP203' ),
    '1' );
FILE_NAME ('112-0265E BK7 pl-cv 25.4 F-5000.STEP',
    '2019-01-15T13:29:44',
    ( '' ),
    ( '' ),
    'SwSTEP 2.0',
    'SolidWorks 2017',
    '' );
FILE_SCHEMA (( 'CONFIG_CONTROL_DESIGN' ));
ENDSEC;

DATA;
#1 = CC_DESIGN_DATE_AND_TIME_ASSIGNMENT ( #18, #114, ( #44 ) ) ;
#2 = APPROVAL_ROLE ( '' ) ;
#3 = COORDINATED_UNIVERSAL_TIME_OFFSET ( 2, 0, .AHEAD. ) ;
#4 = PRODUCT_RELATED_PRODUCT_CATEGORY ( 'detail', '', ( #189 ) ) ;
#5 = VECTOR ( 'NONE', #212, 1000.000000000000000 ) ;
#6 = AXIS2_PLACEMENT_3D ( 'NONE', #234, #55, #35 ) ;
#7 = APPROVAL_DATE_TIME ( #67, #155 ) ;
#8 = CARTESIAN_POINT ( 'NONE',  ( 3.534507561636979700E-013, 12.85239876031406100, -0.03183985498633745700 ) ) ;
#9 = CARTESIAN_POINT ( 'NONE',  ( 4.258702378032789500, 12.85239876031405600, -0.03183985498633878200 ) ) ;
#10 = CARTESIAN_POINT ( 'NONE',  ( 3.442911882850810600E-013, -12.70000000000628600, -0.03108923796086439700 ) ) ;
#11 = DIRECTION ( 'NONE',  ( 0.0000000000000000000, 0.0000000000000000000, 1.000000000000000000 ) ) ;
#12 = APPROVAL_DATE_TIME ( #170, #31 ) ;
#13 = AXIS2_PLACEMENT_3D ( 'NONE', #132, #40, #15 ) ;
#14 = APPLICATION_CONTEXT ( 'configuration controlled 3d designs of mechanical parts and assemblies' ) ;
#15 = DIRECTION ( 'NONE',  ( 1.000000000000000000, 0.0000000000000000000, 0.0000000000000000000 ) ) ;
#16 = ORIENTED_EDGE ( 'NONE', *, *, #124, .T. ) ;
#17 = PERSON_AND_ORGANIZATION ( #49, #209 ) ;
#18 = DATE_AND_TIME ( #78, #64 ) ;
#19 = EDGE_CURVE ( 'NONE', #149, #43, #104, .T. ) ;
#20 = ORIENTED_EDGE ( 'NONE', *, *, #194, .T. ) ;
#21 = ORIENTED_EDGE ( 'NONE', *, *, #19, .F. ) ;
#22 = CARTESIAN_POINT ( 'NONE',  ( 4.996003610813200500E-016, 2.442490654175340100E-015, -0.03108923796081590100 ) ) ;
#23 = CARTESIAN_POINT ( 'NONE',  ( 3.442363251752012900E-013, -12.85239876031419600, -0.03183985498633745700 ) ) ;
#24 = PRODUCT_DEFINITION_FORMATION_WITH_SPECIFIED_SOURCE ( 'ANY', '', #189, .NOT_KNOWN. ) ;
#25 = DIRECTION ( 'NONE',  ( 0.0000000000000000000, 0.0000000000000000000, 1.000000000000000000 ) ) ;
#26 = CARTESIAN_POINT ( 'NONE',  ( 12.77604256518229100, 12.85239876031405600, -0.06330289606350779400 ) ) ;
#27 = ADVANCED_FACE ( 'NONE', ( #136 ), #197, .F. ) ;
#28 = DESIGN_CONTEXT ( 'detailed design', #14, 'design' ) ;
#29 = CARTESIAN_POINT ( 'NONE',  ( 3.533963581242951500E-013, 12.70000000000606000, -0.03108923796086439700 ) ) ;
#30 = ORIENTED_EDGE ( 'NONE', *, *, #106, .F. ) ;
#31 = APPROVAL ( #101, 'UNSPECIFIED' ) ;
#32 = EDGE_CURVE ( 'NONE', #66, #86, #122, .T. ) ;
#33 = DATE_AND_TIME ( #120, #147 ) ;
#34 =( NAMED_UNIT ( * ) PLANE_ANGLE_UNIT ( ) SI_UNIT ( $, .RADIAN. ) );
#35 = DIRECTION ( 'NONE',  ( 1.000000000000000000, 0.0000000000000000000, 0.0000000000000000000 ) ) ;
#36 = LINE ( 'NONE', #174, #201 ) ;
#37 = APPROVAL_ROLE ( '' ) ;
#38 = FACE_OUTER_BOUND ( 'NONE', #181, .T. ) ;
#39 = AXIS2_PLACEMENT_3D ( 'NONE', #211, #210, #107 ) ;
#40 = DIRECTION ( 'NONE',  ( 0.0000000000000000000, 0.0000000000000000000, 1.000000000000000000 ) ) ;
#41 = CC_DESIGN_APPROVAL ( #184, ( #24 ) ) ;
#42 = EDGE_LOOP ( 'NONE', ( #133, #167, #175 ) ) ;
#43 = VERTEX_POINT ( 'NONE', #171 ) ;
#44 = PRODUCT_DEFINITION ( 'UNKNOWN', '', #24, #28 ) ;
#45 = DIRECTION ( 'NONE',  ( 0.0000000000000000000, 0.0000000000000000000, 1.000000000000000000 ) ) ;
#46 = LOCAL_TIME ( 15, 29, 44.00000000000000000, #103 ) ;
#47 = CARTESIAN_POINT ( 'NONE',  ( 3.473209412794694700E-013, -4.284167977233313000, 0.01061337184447932300 ) ) ;
#48 = CARTESIAN_POINT ( 'NONE',  ( 8.517531239030651200, -4.284167977233316500, 0.0001254986407544429800 ) ) ;
#49 = PERSON ( 'UNSPECIFIED', 'UNSPECIFIED', 'UNSPECIFIED', ('UNSPECIFIED'), ('UNSPECIFIED'), ('UNSPECIFIED') ) ;
#50 = ADVANCED_FACE ( 'NONE', ( #38 ), #168, .T. ) ;
#51 = CARTESIAN_POINT ( 'NONE',  ( -4.547473508864640200E-013, -2.273736754432320100E-013, -2594.000000000000000 ) ) ;
#52 = DIRECTION ( 'NONE',  ( 1.000000000000000000, 0.0000000000000000000, 0.0000000000000000000 ) ) ;
#53 = APPLICATION_PROTOCOL_DEFINITION ( 'international standard', 'config_control_design', 1994, #102 ) ;
#54 = CC_DESIGN_PERSON_AND_ORGANIZATION_ASSIGNMENT ( #144, #99, ( #24 ) ) ;
#55 = DIRECTION ( 'NONE',  ( -0.0000000000000000000, -0.0000000000000000000, -1.000000000000000000 ) ) ;
#56 = CARTESIAN_POINT ( 'NONE',  ( 0.0000000000000000000, 26.11199999999999800, 3.899999999999999900 ) ) ;
#57 = PERSON_AND_ORGANIZATION ( #49, #209 ) ;
#58 = CLOSED_SHELL ( 'NONE', ( #156, #91, #27, #50, #227 ) ) ;
#59 = DIRECTION ( 'NONE',  ( 1.000000000000000000, 0.0000000000000000000, 0.0000000000000000000 ) ) ;
#60 = DIRECTION ( 'NONE',  ( 0.0000000000000000000, 0.0000000000000000000, 1.000000000000000000 ) ) ;
#61 = CIRCLE ( 'NONE', #119, 12.69999999999999900 ) ;
#62 = PERSON_AND_ORGANIZATION ( #49, #209 ) ;
#63 = EDGE_CURVE ( 'NONE', #43, #112, #95, .T. ) ;
#64 = LOCAL_TIME ( 15, 29, 44.00000000000000000, #223 ) ;
#65 = PRODUCT_DEFINITION_SHAPE ( 'NONE', 'NONE',  #44 ) ;
#66 = VERTEX_POINT ( 'NONE', #125 ) ;
#67 = DATE_AND_TIME ( #166, #186 ) ;
#68 = CC_DESIGN_PERSON_AND_ORGANIZATION_ASSIGNMENT ( #154, #216, ( #24 ) ) ;
#69 = APPROVAL_PERSON_ORGANIZATION ( #157, #31, #2 ) ;
#70 = CARTESIAN_POINT ( 'NONE',  ( 8.517391842266487600, 12.85239876031405400, -0.04232755654694809300 ) ) ;
#71 = CARTESIAN_POINT ( 'NONE',  ( 4.996003610813200500E-016, 2.442490654175340100E-015, -0.03108923796081590100 ) ) ;
#72 = DIRECTION ( 'NONE',  ( 1.000000000000000000, 0.0000000000000000000, 0.0000000000000000000 ) ) ;
#73 = ORIENTED_EDGE ( 'NONE', *, *, #63, .F. ) ;
#74 = EDGE_LOOP ( 'NONE', ( #182, #158 ) ) ;
#75 = CARTESIAN_POINT ( 'NONE',  ( -8.517531239031754400, 4.284167977233181500, 0.0001254986405568844300 ) ) ;
#76 = UNCERTAINTY_MEASURE_WITH_UNIT (LENGTH_MEASURE( 1.000000000000000100E-005 ), #135, 'distance_accuracy_value', 'NONE');
#77 = AXIS2_PLACEMENT_3D ( 'NONE', #51, #228, #176 ) ;
#78 = CALENDAR_DATE ( 2019, 15, 1 ) ;
#79 = PLANE ( 'NONE',  #183 ) ;
#80 = MANIFOLD_SOLID_BREP ( 'Imported1', #58 ) ;
#81 = CC_DESIGN_SECURITY_CLASSIFICATION ( #85, ( #24 ) ) ;
#82 = EDGE_CURVE ( 'NONE', #43, #66, #36, .T. ) ;
#83 = EDGE_LOOP ( 'NONE', ( #21, #16, #73 ) ) ;
#84 = CALENDAR_DATE ( 2019, 15, 1 ) ;
#85 = SECURITY_CLASSIFICATION ( '', '', #230 ) ;
#86 = VERTEX_POINT ( 'NONE', #109 ) ;
#87 = CARTESIAN_POINT ( 'NONE',  ( 12.77625165958881800, -4.284167977233317400, -0.02085018416099280000 ) ) ;
#88 = DIRECTION ( 'NONE',  ( 1.000000000000000000, 0.0000000000000000000, 0.0000000000000000000 ) ) ;
#89 = PERSON_AND_ORGANIZATION ( #49, #209 ) ;
#90 = CARTESIAN_POINT ( 'NONE',  ( 8.517391842266478700, -12.85239876031419600, -0.04232755654694809300 ) ) ;
#91 = ADVANCED_FACE ( 'NONE', ( #217 ), #173, .T. ) ;
#92 = CARTESIAN_POINT ( 'NONE',  ( 8.517531239030654800, 4.284167977233176200, 0.0001254986407555000500 ) ) ;
#93 = CARTESIAN_POINT ( 'NONE',  ( -12.77625165959050300, 4.284167977233182400, -0.02085018416119449900 ) ) ;
#94 = LINE ( 'NONE', #143, #5 ) ;
#95 = CIRCLE ( 'NONE', #117, 12.69999999999999900 ) ;
#96 = CARTESIAN_POINT ( 'NONE',  ( -4.258772076521067300, -4.284167977233311200, 0.01061337184401403900 ) ) ;
#97 = DIRECTION ( 'NONE',  ( 0.0000000000000000000, 0.0000000000000000000, 1.000000000000000000 ) ) ;
#98 = CARTESIAN_POINT ( 'NONE',  ( -4.258772076521062800, 4.284167977233180700, 0.01061337184401510100 ) ) ;
#99 = PERSON_AND_ORGANIZATION_ROLE ( 'creator' ) ;
#100 = CC_DESIGN_PERSON_AND_ORGANIZATION_ASSIGNMENT ( #89, #131, ( #85 ) ) ;
#101 = APPROVAL_STATUS ( 'not_yet_approved' ) ;
#102 = APPLICATION_CONTEXT ( 'configuration controlled 3d designs of mechanical parts and assemblies' ) ;
#103 = COORDINATED_UNIVERSAL_TIME_OFFSET ( 2, 0, .AHEAD. ) ;
#104 = CIRCLE ( 'NONE', #235, 12.69999999999999900 ) ;
#105 = CIRCLE ( 'NONE', #6, 12.69999999999999900 ) ;
#106 = EDGE_CURVE ( 'NONE', #128, #86, #94, .T. ) ;
#107 = DIRECTION ( 'NONE',  ( 1.000000000000000000, 0.0000000000000000000, 0.0000000000000000000 ) ) ;
#108 = CC_DESIGN_DATE_AND_TIME_ASSIGNMENT ( #33, #161, ( #85 ) ) ;
#109 = CARTESIAN_POINT ( 'NONE',  ( 12.69999999999999900, 2.442490654175340100E-015, 3.899999999999999900 ) ) ;
#110 = DIRECTION ( 'NONE',  ( -0.0000000000000000000, -0.0000000000000000000, -1.000000000000000000 ) ) ;
#111 = CARTESIAN_POINT ( 'NONE',  ( -2.896988204881267800E-013, -4.284167977233312100, 0.01061337184401376500 ) ) ;
#112 = VERTEX_POINT ( 'NONE', #10 ) ;
#113 = CARTESIAN_POINT ( 'NONE',  ( -8.517391842267581800, 12.85239876031406100, -0.04232755654714669100 ) ) ;
#114 = DATE_TIME_ROLE ( 'creation_date' ) ;
#115 = APPLICATION_PROTOCOL_DEFINITION ( 'international standard', 'config_control_design', 1994, #14 ) ;
#116 = DIRECTION ( 'NONE',  ( 0.0000000000000000000, 0.0000000000000000000, 1.000000000000000000 ) ) ;
#117 = AXIS2_PLACEMENT_3D ( 'NONE', #140, #25, #72 ) ;
#118 = ORIENTED_EDGE ( 'NONE', *, *, #106, .T. ) ;
#119 = AXIS2_PLACEMENT_3D ( 'NONE', #192, #97, #52 ) ;
#120 = CALENDAR_DATE ( 2019, 15, 1 ) ;
#121 = ORIENTED_EDGE ( 'NONE', *, *, #63, .T. ) ;
#122 = CIRCLE ( 'NONE', #151, 12.69999999999999900 ) ;
#123 = DIRECTION ( 'NONE',  ( 1.000000000000000000, 0.0000000000000000000, 0.0000000000000000000 ) ) ;
#124 = EDGE_CURVE ( 'NONE', #149, #112, #204, .T. ) ;
#125 = CARTESIAN_POINT ( 'NONE',  ( -12.69999999999999900, 3.997792089092478900E-015, 3.899999999999999900 ) ) ;
#126 = APPROVAL_PERSON_ORGANIZATION ( #57, #155, #148 ) ;
#127 = CC_DESIGN_APPROVAL ( #31, ( #85 ) ) ;
#128 = VERTEX_POINT ( 'NONE', #229 ) ;
#129 = CARTESIAN_POINT ( 'NONE',  ( -2.827599265842195600E-013, 12.85239876031406100, -0.03183985498680301500 ) ) ;
#130 = APPROVAL_PERSON_ORGANIZATION ( #153, #184, #37 ) ;
#131 = PERSON_AND_ORGANIZATION_ROLE ( 'classification_officer' ) ;
#132 = CARTESIAN_POINT ( 'NONE',  ( 0.0000000000000000000, 0.0000000000000000000, 0.0000000000000000000 ) ) ;
#133 = ORIENTED_EDGE ( 'NONE', *, *, #124, .F. ) ;
#134 = ORIENTED_EDGE ( 'NONE', *, *, #221, .T. ) ;
#135 =( LENGTH_UNIT ( ) NAMED_UNIT ( * ) SI_UNIT ( .MILLI., .METRE. ) );
#136 = FACE_OUTER_BOUND ( 'NONE', #42, .T. ) ;
#137 = ORIENTED_EDGE ( 'NONE', *, *, #82, .F. ) ;
#138 = EDGE_CURVE ( 'NONE', #128, #149, #61, .T. ) ;
#139 = CARTESIAN_POINT ( 'NONE',  ( 12.77625165958882100, 4.284167977233172700, -0.02085018416099174500 ) ) ;
#140 = CARTESIAN_POINT ( 'NONE',  ( 4.996003610813200500E-016, 2.442490654175340100E-015, -0.03108923796081590100 ) ) ;
#141 = COORDINATED_UNIVERSAL_TIME_OFFSET ( 2, 0, .AHEAD. ) ;
#142 = CARTESIAN_POINT ( 'NONE',  ( -8.517531239031761500, -4.284167977233310300, 0.0001254986405558306900 ) ) ;
#143 = CARTESIAN_POINT ( 'NONE',  ( 12.69999999999999900, 2.442490654175340100E-015, -0.03108923796081590100 ) ) ;
#144 = PERSON_AND_ORGANIZATION ( #49, #209 ) ;
#145 = CARTESIAN_POINT ( 'NONE',  ( -12.77625165959050900, -4.284167977233307700, -0.02085018416119555800 ) ) ;
#146 = CARTESIAN_POINT ( 'NONE',  ( -2.931682674400804000E-013, -12.85239876031419600, -0.03183985498680301500 ) ) ;
#147 = LOCAL_TIME ( 15, 29, 44.00000000000000000, #141 ) ;
#148 = APPROVAL_ROLE ( '' ) ;
#149 = VERTEX_POINT ( 'NONE', #29 ) ;
#150 = APPROVAL_STATUS ( 'not_yet_approved' ) ;
#151 = AXIS2_PLACEMENT_3D ( 'NONE', #208, #110, #88 ) ;
#152 = FACE_OUTER_BOUND ( 'NONE', #83, .T. ) ;
#153 = PERSON_AND_ORGANIZATION ( #49, #209 ) ;
#154 = PERSON_AND_ORGANIZATION ( #49, #209 ) ;
#155 = APPROVAL ( #199, 'UNSPECIFIED' ) ;
#156 = ADVANCED_FACE ( 'NONE', ( #152 ), #202, .F. ) ;
#157 = PERSON_AND_ORGANIZATION ( #49, #209 ) ;
#158 = ORIENTED_EDGE ( 'NONE', *, *, #32, .F. ) ;
#159 = AXIS2_PLACEMENT_3D ( 'NONE', #71, #11, #198 ) ;
#160 = CARTESIAN_POINT ( 'NONE',  ( -12.77604256518397800, -12.85239876031419100, -0.06330289606371053400 ) ) ;
#161 = DATE_TIME_ROLE ( 'classification_date' ) ;
#162 = COORDINATED_UNIVERSAL_TIME_OFFSET ( 2, 0, .AHEAD. ) ;
#163 = PERSON_AND_ORGANIZATION_ROLE ( 'creator' ) ;
#164 = ORIENTED_EDGE ( 'NONE', *, *, #138, .T. ) ;
#165 = CC_DESIGN_APPROVAL ( #155, ( #44 ) ) ;
#166 = CALENDAR_DATE ( 2019, 15, 1 ) ;
#167 = ORIENTED_EDGE ( 'NONE', *, *, #138, .F. ) ;
#168 = CYLINDRICAL_SURFACE ( 'NONE', #39, 12.69999999999999900 ) ;
#169 = CARTESIAN_POINT ( 'NONE',  ( 4.258772076520543200, -4.284167977233315700, 0.01061337184447800000 ) ) ;
#170 = DATE_AND_TIME ( #220, #46 ) ;
#171 = CARTESIAN_POINT ( 'NONE',  ( -12.69999999999999900, 3.997792089092478900E-015, -0.03108923796081590100 ) ) ;
#172 = DIRECTION ( 'NONE',  ( 0.0000000000000000000, 0.0000000000000000000, 1.000000000000000000 ) ) ;
#173 = CYLINDRICAL_SURFACE ( 'NONE', #159, 12.69999999999999900 ) ;
#174 = CARTESIAN_POINT ( 'NONE',  ( -12.69999999999999900, 3.997792089092478900E-015, -0.03108923796081590100 ) ) ;
#175 = ORIENTED_EDGE ( 'NONE', *, *, #221, .F. ) ;
#176 = DIRECTION ( 'NONE',  ( 3.584712535121919700E-016, 1.000000000000000000, 0.0000000000000000000 ) ) ;
#177 = CARTESIAN_POINT ( 'NONE',  ( -12.77604256518396800, 12.85239876031406700, -0.06330289606371053400 ) ) ;
#178 = CC_DESIGN_PERSON_AND_ORGANIZATION_ASSIGNMENT ( #17, #163, ( #44 ) ) ;
#179 = CARTESIAN_POINT ( 'NONE',  ( 4.996003610813200500E-016, 2.442490654175340100E-015, -0.03108923796081590100 ) ) ;
#180 = DIRECTION ( 'NONE',  ( 1.000000000000000000, 0.0000000000000000000, -0.0000000000000000000 ) ) ;
#181 = EDGE_LOOP ( 'NONE', ( #137, #121, #134, #118, #20 ) ) ;
#182 = ORIENTED_EDGE ( 'NONE', *, *, #194, .F. ) ;
#183 = AXIS2_PLACEMENT_3D ( 'NONE', #56, #60, #180 ) ;
#184 = APPROVAL ( #150, 'UNSPECIFIED' ) ;
#185 = APPROVAL_DATE_TIME ( #191, #184 ) ;
#186 = LOCAL_TIME ( 15, 29, 44.00000000000000000, #3 ) ;
#187 = AXIS2_PLACEMENT_3D ( 'NONE', #179, #116, #59 ) ;
#188 = CARTESIAN_POINT ( 'NONE',  ( 4.258702378032779700, -12.85239876031419500, -0.03183985498633878200 ) ) ;
#189 = PRODUCT ( '112-0265E BK7 pl-cv 25.4 F-5000', '112-0265E BK7 pl-cv 25.4 F-5000', '', ( #218 ) ) ;
#190 = CARTESIAN_POINT ( 'NONE',  ( 4.258772076520546800, 4.284167977233177100, 0.01061337184447905600 ) ) ;
#191 = DATE_AND_TIME ( #84, #232 ) ;
#192 = CARTESIAN_POINT ( 'NONE',  ( 4.996003610813200500E-016, 2.442490654175340100E-015, -0.03108923796081590100 ) ) ;
#193 = CARTESIAN_POINT ( 'NONE',  ( -2.844946500601963100E-013, 4.284167977233178000, 0.01061337184401482100 ) ) ;
#194 = EDGE_CURVE ( 'NONE', #86, #66, #105, .T. ) ;
#195 = CIRCLE ( 'NONE', #187, 12.69999999999999900 ) ;
#196 = CARTESIAN_POINT ( 'NONE',  ( -8.517391842267592500, -12.85239876031418900, -0.04232755654714669100 ) ) ;
#197 =( BOUNDED_SURFACE ( )  B_SPLINE_SURFACE ( 3, 3, ( 
 ( #8, #9, #70, #26 ),
 ( #207, #190, #92, #139 ),
 ( #47, #169, #48, #87 ),
 ( #23, #188, #90, #225 ) ),
 .UNSPECIFIED., .F., .F., .F. ) 
 B_SPLINE_SURFACE_WITH_KNOTS ( ( 4, 4 ),
 ( 4, 4 ),
 ( 0.0000000000000000000, 1.000000000000000000 ),
 ( 0.0000000000000000000, 1.000000000000000000 ),
 .UNSPECIFIED. ) 
 GEOMETRIC_REPRESENTATION_ITEM ( )  RATIONAL_B_SPLINE_SURFACE ( (
 ( 1.000000000000000000, 0.9999979784454525700, 0.9999979784454525700, 1.000000000000000000),
 ( 0.9999918170508901300, 0.9999897955128850300, 0.9999897955128850300, 0.9999918170508901300),
 ( 0.9999918170508901300, 0.9999897955128850300, 0.9999897955128850300, 0.9999918170508901300),
 ( 1.000000000000000000, 0.9999979784454525700, 0.9999979784454525700, 1.000000000000000000) ) ) 
 REPRESENTATION_ITEM ( '' )  SURFACE ( )  );
#198 = DIRECTION ( 'NONE',  ( 1.000000000000000000, 0.0000000000000000000, 0.0000000000000000000 ) ) ;
#199 = APPROVAL_STATUS ( 'not_yet_approved' ) ;
#200 = PERSON_AND_ORGANIZATION_ROLE ( 'design_owner' ) ;
#201 = VECTOR ( 'NONE', #172, 1000.000000000000000 ) ;
#202 =( BOUNDED_SURFACE ( )  B_SPLINE_SURFACE ( 3, 3, ( 
 ( #177, #113, #214, #129 ),
 ( #93, #75, #98, #193 ),
 ( #145, #142, #96, #111 ),
 ( #160, #196, #215, #146 ) ),
 .UNSPECIFIED., .F., .F., .F. ) 
 B_SPLINE_SURFACE_WITH_KNOTS ( ( 4, 4 ),
 ( 4, 4 ),
 ( 0.0000000000000000000, 1.000000000000000000 ),
 ( 0.0000000000000000000, 1.000000000000000000 ),
 .UNSPECIFIED. ) 
 GEOMETRIC_REPRESENTATION_ITEM ( )  RATIONAL_B_SPLINE_SURFACE ( (
 ( 1.000000000000000000, 0.9999979784454525700, 0.9999979784454525700, 1.000000000000000000),
 ( 0.9999918170508901300, 0.9999897955128850300, 0.9999897955128850300, 0.9999918170508901300),
 ( 0.9999918170508901300, 0.9999897955128850300, 0.9999897955128850300, 0.9999918170508901300),
 ( 1.000000000000000000, 0.9999979784454525700, 0.9999979784454525700, 1.000000000000000000) ) ) 
 REPRESENTATION_ITEM ( '' )  SURFACE ( )  );
#203 = ADVANCED_BREP_SHAPE_REPRESENTATION ( '112-0265E BK7 pl-cv 25.4 F-5000', ( #80, #13 ), #206 ) ;
#204 = CIRCLE ( 'NONE', #77, 2594.000000000000000 ) ;
#205 = SHAPE_DEFINITION_REPRESENTATION ( #65, #203 ) ;
#206 =( GEOMETRIC_REPRESENTATION_CONTEXT ( 3 ) GLOBAL_UNCERTAINTY_ASSIGNED_CONTEXT ( ( #76 ) ) GLOBAL_UNIT_ASSIGNED_CONTEXT ( ( #135, #34, #231 ) ) REPRESENTATION_CONTEXT ( 'NONE', 'WORKASPACE' ) );
#207 = CARTESIAN_POINT ( 'NONE',  ( 3.503924434095806300E-013, 4.284167977233177100, 0.01061337184448038000 ) ) ;
#208 = CARTESIAN_POINT ( 'NONE',  ( 4.996003610813200500E-016, 2.442490654175340100E-015, 3.899999999999999900 ) ) ;
#209 = ORGANIZATION ( 'UNSPECIFIED', 'UNSPECIFIED', '' ) ;
#210 = DIRECTION ( 'NONE',  ( 0.0000000000000000000, 0.0000000000000000000, 1.000000000000000000 ) ) ;
#211 = CARTESIAN_POINT ( 'NONE',  ( 4.996003610813200500E-016, 2.442490654175340100E-015, -0.03108923796081590100 ) ) ;
#212 = DIRECTION ( 'NONE',  ( 0.0000000000000000000, 0.0000000000000000000, 1.000000000000000000 ) ) ;
#213 = ORIENTED_EDGE ( 'NONE', *, *, #19, .T. ) ;
#214 = CARTESIAN_POINT ( 'NONE',  ( -4.258702378033300200, 12.85239876031406000, -0.03183985498680273800 ) ) ;
#215 = CARTESIAN_POINT ( 'NONE',  ( -4.258702378033310900, -12.85239876031419100, -0.03183985498680274400 ) ) ;
#216 = PERSON_AND_ORGANIZATION_ROLE ( 'design_supplier' ) ;
#217 = FACE_OUTER_BOUND ( 'NONE', #219, .T. ) ;
#218 = MECHANICAL_CONTEXT ( 'NONE', #102, 'mechanical' ) ;
#219 = EDGE_LOOP ( 'NONE', ( #164, #213, #226, #222, #30 ) ) ;
#220 = CALENDAR_DATE ( 2019, 15, 1 ) ;
#221 = EDGE_CURVE ( 'NONE', #112, #128, #195, .T. ) ;
#222 = ORIENTED_EDGE ( 'NONE', *, *, #32, .T. ) ;
#223 = COORDINATED_UNIVERSAL_TIME_OFFSET ( 2, 0, .AHEAD. ) ;
#224 = CC_DESIGN_PERSON_AND_ORGANIZATION_ASSIGNMENT ( #62, #200, ( #189 ) ) ;
#225 = CARTESIAN_POINT ( 'NONE',  ( 12.77604256518228000, -12.85239876031420200, -0.06330289606350779400 ) ) ;
#226 = ORIENTED_EDGE ( 'NONE', *, *, #82, .T. ) ;
#227 = ADVANCED_FACE ( 'NONE', ( #233 ), #79, .T. ) ;
#228 = DIRECTION ( 'NONE',  ( 1.000000000000000000, -3.584712535121920200E-016, -3.097921184626219800E-016 ) ) ;
#229 = CARTESIAN_POINT ( 'NONE',  ( 12.69999999999999900, 2.442490654175340100E-015, -0.03108923796081590100 ) ) ;
#230 = SECURITY_CLASSIFICATION_LEVEL ( 'unclassified' ) ;
#231 =( NAMED_UNIT ( * ) SI_UNIT ( $, .STERADIAN. ) SOLID_ANGLE_UNIT ( ) );
#232 = LOCAL_TIME ( 15, 29, 44.00000000000000000, #162 ) ;
#233 = FACE_OUTER_BOUND ( 'NONE', #74, .T. ) ;
#234 = CARTESIAN_POINT ( 'NONE',  ( 4.996003610813200500E-016, 2.442490654175340100E-015, 3.899999999999999900 ) ) ;
#235 = AXIS2_PLACEMENT_3D ( 'NONE', #22, #45, #123 ) ;
ENDSEC;
END-ISO-10303-21;
