ISO-10303-21;
HEADER;
FILE_DESCRIPTION (( 'STEP AP203' ),
    '1' );
FILE_NAME ('112-0263E BK7 pl-cv 25.4 F-3000.STEP',
    '2019-01-15T13:19:53',
    ( '' ),
    ( '' ),
    'SwSTEP 2.0',
    'SolidWorks 2017',
    '' );
FILE_SCHEMA (( 'CONFIG_CONTROL_DESIGN' ));
ENDSEC;

DATA;
#1 = CARTESIAN_POINT ( 'NONE',  ( -4.258647300531633200, 12.85239655460532000, -0.05308062813312380800 ) ) ;
#2 = FACE_OUTER_BOUND ( 'NONE', #79, .T. ) ;
#3 = DIRECTION ( 'NONE',  ( 1.000000000000000000, -2.988028379211529900E-016, -2.582264637827899900E-016 ) ) ;
#4 = CARTESIAN_POINT ( 'NONE',  ( -8.517646131195276000, 4.284229618287088900, 0.0002092870717451569700 ) ) ;
#5 = ORIENTED_EDGE ( 'NONE', *, *, #193, .T. ) ;
#6 = PERSON_AND_ORGANIZATION_ROLE ( 'creator' ) ;
#7 = VERTEX_POINT ( 'NONE', #157 ) ;
#8 = CALENDAR_DATE ( 2019, 15, 1 ) ;
#9 = DIRECTION ( 'NONE',  ( 1.000000000000000000, 0.0000000000000000000, 0.0000000000000000000 ) ) ;
#10 = EDGE_CURVE ( 'NONE', #7, #230, #231, .T. ) ;
#11 = CC_DESIGN_PERSON_AND_ORGANIZATION_ASSIGNMENT ( #17, #6, ( #139 ) ) ;
#12 = VERTEX_POINT ( 'NONE', #71 ) ;
#13 = CARTESIAN_POINT ( 'NONE',  ( 4.258841011475852600, 4.284229618287086300, 0.01769394511263254100 ) ) ;
#14 = CARTESIAN_POINT ( 'NONE',  ( 12.77634357625656800, -4.284229618287194600, -0.03475973430319542100 ) ) ;
#15 = ADVANCED_FACE ( 'NONE', ( #24 ), #44, .T. ) ;
#16 = VERTEX_POINT ( 'NONE', #199 ) ;
#17 = PERSON_AND_ORGANIZATION ( #212, #67 ) ;
#18 = EDGE_CURVE ( 'NONE', #12, #16, #182, .T. ) ;
#19 = CARTESIAN_POINT ( 'NONE',  ( -8.517646131195279600, -4.284229618287190200, 0.0002092870717457397200 ) ) ;
#20 = COORDINATED_UNIVERSAL_TIME_OFFSET ( 2, 0, .AHEAD. ) ;
#21 = APPLICATION_PROTOCOL_DEFINITION ( 'international standard', 'config_control_design', 1994, #98 ) ;
#22 = AXIS2_PLACEMENT_3D ( 'NONE', #123, #161, #183 ) ;
#23 =( LENGTH_UNIT ( ) NAMED_UNIT ( * ) SI_UNIT ( .MILLI., .METRE. ) );
#24 = FACE_OUTER_BOUND ( 'NONE', #108, .T. ) ;
#25 = CARTESIAN_POINT ( 'NONE',  ( 0.0000000000000000000, 26.11199999999999800, 3.899999999999999900 ) ) ;
#26 = PLANE ( 'NONE',  #154 ) ;
#27 = COORDINATED_UNIVERSAL_TIME_OFFSET ( 2, 0, .AHEAD. ) ;
#28 = ORIENTED_EDGE ( 'NONE', *, *, #10, .T. ) ;
#29 = AXIS2_PLACEMENT_3D ( 'NONE', #49, #235, #219 ) ;
#30 = CALENDAR_DATE ( 2019, 15, 1 ) ;
#31 = PRODUCT_RELATED_PRODUCT_CATEGORY ( 'detail', '', ( #46 ) ) ;
#32 = CIRCLE ( 'NONE', #215, 12.69999999999999900 ) ;
#33 = AXIS2_PLACEMENT_3D ( 'NONE', #38, #167, #110 ) ;
#34 = CARTESIAN_POINT ( 'NONE',  ( 12.69999999999999900, 2.442490654175340100E-015, -0.05182926936820780200 ) ) ;
#35 = CARTESIAN_POINT ( 'NONE',  ( 4.718447854656914300E-013, -4.284229618287191100, 0.01769394511265012400 ) ) ;
#36 = DESIGN_CONTEXT ( 'detailed design', #78, 'design' ) ;
#37 = ADVANCED_FACE ( 'NONE', ( #155 ), #186, .F. ) ;
#38 = CARTESIAN_POINT ( 'NONE',  ( 4.996003610813200500E-016, 2.442490654175340100E-015, -0.05182926936820780200 ) ) ;
#39 = ORIENTED_EDGE ( 'NONE', *, *, #184, .T. ) ;
#40 = DATE_TIME_ROLE ( 'creation_date' ) ;
#41 = DIRECTION ( 'NONE',  ( 0.0000000000000000000, 0.0000000000000000000, 1.000000000000000000 ) ) ;
#42 = DATE_TIME_ROLE ( 'classification_date' ) ;
#43 = PERSON_AND_ORGANIZATION ( #212, #67 ) ;
#44 = CYLINDRICAL_SURFACE ( 'NONE', #22, 12.69999999999999900 ) ;
#45 = CC_DESIGN_APPROVAL ( #102, ( #170 ) ) ;
#46 = PRODUCT ( '112-0263E BK7 pl-cv 25.4 F-3000', '112-0263E BK7 pl-cv 25.4 F-3000', '', ( #226 ) ) ;
#47 = ORIENTED_EDGE ( 'NONE', *, *, #64, .F. ) ;
#48 = APPROVAL_DATE_TIME ( #214, #195 ) ;
#49 = CARTESIAN_POINT ( 'NONE',  ( 4.996003610813200500E-016, 2.442490654175340100E-015, -0.05182926936820780200 ) ) ;
#50 = APPROVAL ( #228, 'UNSPECIFIED' ) ;
#51 = DIRECTION ( 'NONE',  ( -0.0000000000000000000, -0.0000000000000000000, -1.000000000000000000 ) ) ;
#52 = ORIENTED_EDGE ( 'NONE', *, *, #166, .T. ) ;
#53 = APPROVAL_DATE_TIME ( #101, #50 ) ;
#54 = CARTESIAN_POINT ( 'NONE',  ( -12.77576245158913800, 12.85239655460532200, -0.1055319217233563500 ) ) ;
#55 = CARTESIAN_POINT ( 'NONE',  ( -8.517258710941423100, -12.85239655460542400, -0.07056449089437556700 ) ) ;
#56 = CARTESIAN_POINT ( 'NONE',  ( -8.517258710941416000, 12.85239655460532000, -0.07056449089437556700 ) ) ;
#57 = DIRECTION ( 'NONE',  ( 2.988028379211528500E-016, 1.000000000000000000, -5.708087530206460600E-016 ) ) ;
#58 = APPROVAL_STATUS ( 'not_yet_approved' ) ;
#59 = APPROVAL_ROLE ( '' ) ;
#60 = CC_DESIGN_PERSON_AND_ORGANIZATION_ASSIGNMENT ( #121, #172, ( #139 ) ) ;
#61 = CIRCLE ( 'NONE', #175, 1556.000000000000000 ) ;
#62 = APPLICATION_PROTOCOL_DEFINITION ( 'international standard', 'config_control_design', 1994, #78 ) ;
#63 = PERSON_AND_ORGANIZATION_ROLE ( 'design_owner' ) ;
#64 = EDGE_CURVE ( 'NONE', #230, #7, #162, .T. ) ;
#65 = CALENDAR_DATE ( 2019, 15, 1 ) ;
#66 = AXIS2_PLACEMENT_3D ( 'NONE', #132, #99, #9 ) ;
#67 = ORGANIZATION ( 'UNSPECIFIED', 'UNSPECIFIED', '' ) ;
#68 = CARTESIAN_POINT ( 'NONE',  ( 8.603743542741909500E-013, 12.85239655460531900, -0.05308062813313974000 ) ) ;
#69 = CARTESIAN_POINT ( 'NONE',  ( 8.517646131196000800, 4.284229618287084500, 0.0002092870716817446900 ) ) ;
#70 = ORIENTED_EDGE ( 'NONE', *, *, #166, .F. ) ;
#71 = CARTESIAN_POINT ( 'NONE',  ( 8.527395488019301600E-013, -12.70000000002365700, -0.05182926936836925600 ) ) ;
#72 = APPROVAL_PERSON_ORGANIZATION ( #74, #195, #59 ) ;
#73 = CIRCLE ( 'NONE', #200, 12.69999999999999900 ) ;
#74 = PERSON_AND_ORGANIZATION ( #212, #67 ) ;
#75 = DIRECTION ( 'NONE',  ( 1.000000000000000000, 0.0000000000000000000, -0.0000000000000000000 ) ) ;
#76 = ORIENTED_EDGE ( 'NONE', *, *, #93, .T. ) ;
#77 = PERSON_AND_ORGANIZATION ( #212, #67 ) ;
#78 = APPLICATION_CONTEXT ( 'configuration controlled 3d designs of mechanical parts and assemblies' ) ;
#79 = EDGE_LOOP ( 'NONE', ( #5, #76, #39, #90, #70 ) ) ;
#80 = LOCAL_TIME ( 15, 19, 53.00000000000000000, #189 ) ;
#81 = ADVANCED_BREP_SHAPE_REPRESENTATION ( '112-0263E BK7 pl-cv 25.4 F-3000', ( #229, #66 ), #144 ) ;
#82 = EDGE_CURVE ( 'NONE', #194, #12, #61, .T. ) ;
#83 = ORIENTED_EDGE ( 'NONE', *, *, #153, .F. ) ;
#84 = SHAPE_DEFINITION_REPRESENTATION ( #196, #81 ) ;
#85 = CARTESIAN_POINT ( 'NONE',  ( 4.258841011475849900, -4.284229618287193700, 0.01769394511263312400 ) ) ;
#86 = CC_DESIGN_APPROVAL ( #50, ( #139 ) ) ;
#87 = CARTESIAN_POINT ( 'NONE',  ( 8.526936891449828300E-013, -12.85239655460542400, -0.05308062813313974000 ) ) ;
#88 = EDGE_LOOP ( 'NONE', ( #137, #47 ) ) ;
#89 = DIRECTION ( 'NONE',  ( 0.0000000000000000000, 0.0000000000000000000, 1.000000000000000000 ) ) ;
#90 = ORIENTED_EDGE ( 'NONE', *, *, #64, .T. ) ;
#91 = APPROVAL_DATE_TIME ( #128, #102 ) ;
#92 = CARTESIAN_POINT ( 'NONE',  ( 4.547473508864640200E-013, 0.0000000000000000000, -1556.000000000000000 ) ) ;
#93 = EDGE_CURVE ( 'NONE', #194, #211, #32, .T. ) ;
#94 = CARTESIAN_POINT ( 'NONE',  ( 4.701100619897147200E-013, -12.85239655460542400, -0.05308062813312384300 ) ) ;
#95 = CARTESIAN_POINT ( 'NONE',  ( -12.69999999999999900, 3.997792089092478900E-015, -0.05182926936820780200 ) ) ;
#96 =( NAMED_UNIT ( * ) SI_UNIT ( $, .STERADIAN. ) SOLID_ANGLE_UNIT ( ) );
#97 = AXIS2_PLACEMENT_3D ( 'NONE', #190, #114, #221 ) ;
#98 = APPLICATION_CONTEXT ( 'configuration controlled 3d designs of mechanical parts and assemblies' ) ;
#99 = DIRECTION ( 'NONE',  ( 0.0000000000000000000, 0.0000000000000000000, 1.000000000000000000 ) ) ;
#100 = ORIENTED_EDGE ( 'NONE', *, *, #193, .F. ) ;
#101 = DATE_AND_TIME ( #218, #174 ) ;
#102 = APPROVAL ( #58, 'UNSPECIFIED' ) ;
#103 = CARTESIAN_POINT ( 'NONE',  ( 4.996003610813200500E-016, 2.442490654175340100E-015, 3.900000000000000400 ) ) ;
#104 = LINE ( 'NONE', #95, #164 ) ;
#105 = CARTESIAN_POINT ( 'NONE',  ( 8.552721576091118500E-013, -4.284229618287191100, 0.01769394511263422100 ) ) ;
#106 = CC_DESIGN_PERSON_AND_ORGANIZATION_ASSIGNMENT ( #43, #147, ( #170 ) ) ;
#107 = CARTESIAN_POINT ( 'NONE',  ( 4.258647300532667900, 12.85239655460531700, -0.05308062813314085000 ) ) ;
#108 = EDGE_LOOP ( 'NONE', ( #208, #178, #201, #52, #28 ) ) ;
#109 = LOCAL_TIME ( 15, 19, 53.00000000000000000, #27 ) ;
#110 = DIRECTION ( 'NONE',  ( 1.000000000000000000, 0.0000000000000000000, 0.0000000000000000000 ) ) ;
#111 = DIRECTION ( 'NONE',  ( 0.0000000000000000000, 0.0000000000000000000, 1.000000000000000000 ) ) ;
#112 = CARTESIAN_POINT ( 'NONE',  ( 4.770489558936219500E-013, 12.85239655460531900, -0.05308062813312384300 ) ) ;
#113 = FACE_OUTER_BOUND ( 'NONE', #141, .T. ) ;
#114 = DIRECTION ( 'NONE',  ( -0.0000000000000000000, -0.0000000000000000000, -1.000000000000000000 ) ) ;
#115 = CARTESIAN_POINT ( 'NONE',  ( -4.258647300531640300, -12.85239655460542400, -0.05308062813312380100 ) ) ;
#116 = CARTESIAN_POINT ( 'NONE',  ( 4.996003610813200500E-016, 2.442490654175340100E-015, -0.05182926936820780200 ) ) ;
#117 = CARTESIAN_POINT ( 'NONE',  ( 8.603291408851414800E-013, 12.70000000002366000, -0.05182926936836925600 ) ) ;
#118 = ORIENTED_EDGE ( 'NONE', *, *, #82, .F. ) ;
#119 = CC_DESIGN_DATE_AND_TIME_ASSIGNMENT ( #224, #40, ( #170 ) ) ;
#120 = LOCAL_TIME ( 15, 19, 53.00000000000000000, #209 ) ;
#121 = PERSON_AND_ORGANIZATION ( #212, #67 ) ;
#122 = CARTESIAN_POINT ( 'NONE',  ( 8.517646131195997200, -4.284229618287195500, 0.0002092870716823274500 ) ) ;
#123 = CARTESIAN_POINT ( 'NONE',  ( 4.996003610813200500E-016, 2.442490654175340100E-015, -0.05182926936820780200 ) ) ;
#124 = LINE ( 'NONE', #34, #150 ) ;
#125 = COORDINATED_UNIVERSAL_TIME_OFFSET ( 2, 0, .AHEAD. ) ;
#126 = CARTESIAN_POINT ( 'NONE',  ( -4.258841011474824100, -4.284229618287192000, 0.01769394511265017600 ) ) ;
#127 = ORIENTED_EDGE ( 'NONE', *, *, #82, .T. ) ;
#128 = DATE_AND_TIME ( #65, #179 ) ;
#129 = CARTESIAN_POINT ( 'NONE',  ( -4.258841011474821400, 4.284229618287088000, 0.01769394511264959700 ) ) ;
#130 = ADVANCED_FACE ( 'NONE', ( #2 ), #227, .T. ) ;
#131 = SECURITY_CLASSIFICATION_LEVEL ( 'unclassified' ) ;
#132 = CARTESIAN_POINT ( 'NONE',  ( 0.0000000000000000000, 0.0000000000000000000, 0.0000000000000000000 ) ) ;
#133 = DIRECTION ( 'NONE',  ( 0.0000000000000000000, 0.0000000000000000000, 1.000000000000000000 ) ) ;
#134 = ORIENTED_EDGE ( 'NONE', *, *, #18, .F. ) ;
#135 = EDGE_LOOP ( 'NONE', ( #118, #100, #134 ) ) ;
#136 = UNCERTAINTY_MEASURE_WITH_UNIT (LENGTH_MEASURE( 1.000000000000000100E-005 ), #23, 'distance_accuracy_value', 'NONE');
#137 = ORIENTED_EDGE ( 'NONE', *, *, #10, .F. ) ;
#138 = CARTESIAN_POINT ( 'NONE',  ( 12.77634357625657200, 4.284229618287081800, -0.03475973430319600300 ) ) ;
#139 = PRODUCT_DEFINITION_FORMATION_WITH_SPECIFIED_SOURCE ( 'ANY', '', #46, .NOT_KNOWN. ) ;
#140 = CARTESIAN_POINT ( 'NONE',  ( 4.258647300532660800, -12.85239655460542700, -0.05308062813314085000 ) ) ;
#141 = EDGE_LOOP ( 'NONE', ( #233, #127, #83 ) ) ;
#142 = CC_DESIGN_SECURITY_CLASSIFICATION ( #173, ( #139 ) ) ;
#143 = CARTESIAN_POINT ( 'NONE',  ( 12.77576245158955900, -12.85239655460542700, -0.1055319217234159500 ) ) ;
#144 =( GEOMETRIC_REPRESENTATION_CONTEXT ( 3 ) GLOBAL_UNCERTAINTY_ASSIGNED_CONTEXT ( ( #136 ) ) GLOBAL_UNIT_ASSIGNED_CONTEXT ( ( #23, #206, #96 ) ) REPRESENTATION_CONTEXT ( 'NONE', 'WORKASPACE' ) );
#145 = CARTESIAN_POINT ( 'NONE',  ( -12.77634357625614600, 4.284229618287088900, -0.03475973430313640500 ) ) ;
#146 = AXIS2_PLACEMENT_3D ( 'NONE', #103, #51, #159 ) ;
#147 = PERSON_AND_ORGANIZATION_ROLE ( 'creator' ) ;
#148 = DIRECTION ( 'NONE',  ( 1.000000000000000000, 0.0000000000000000000, 0.0000000000000000000 ) ) ;
#149 = PERSON_AND_ORGANIZATION_ROLE ( 'classification_officer' ) ;
#150 = VECTOR ( 'NONE', #111, 1000.000000000000000 ) ;
#151 = APPROVAL_PERSON_ORGANIZATION ( #176, #50, #152 ) ;
#152 = APPROVAL_ROLE ( '' ) ;
#153 = EDGE_CURVE ( 'NONE', #211, #12, #217, .T. ) ;
#154 = AXIS2_PLACEMENT_3D ( 'NONE', #25, #133, #75 ) ;
#155 = FACE_OUTER_BOUND ( 'NONE', #135, .T. ) ;
#156 = DATE_AND_TIME ( #204, #120 ) ;
#157 = CARTESIAN_POINT ( 'NONE',  ( 12.69999999999999900, 2.442490654175340100E-015, 3.900000000000000400 ) ) ;
#158 = PERSON_AND_ORGANIZATION ( #212, #67 ) ;
#159 = DIRECTION ( 'NONE',  ( 1.000000000000000000, 0.0000000000000000000, 0.0000000000000000000 ) ) ;
#160 = CARTESIAN_POINT ( 'NONE',  ( 8.517258710942147800, 12.85239655460531700, -0.07056449089443897500 ) ) ;
#161 = DIRECTION ( 'NONE',  ( 0.0000000000000000000, 0.0000000000000000000, 1.000000000000000000 ) ) ;
#162 = CIRCLE ( 'NONE', #97, 12.69999999999999900 ) ;
#163 = CARTESIAN_POINT ( 'NONE',  ( -12.77576245158914300, -12.85239655460542200, -0.1055319217233563500 ) ) ;
#164 = VECTOR ( 'NONE', #225, 1000.000000000000000 ) ;
#165 = DIRECTION ( 'NONE',  ( 1.000000000000000000, 0.0000000000000000000, 0.0000000000000000000 ) ) ;
#166 = EDGE_CURVE ( 'NONE', #16, #7, #124, .T. ) ;
#167 = DIRECTION ( 'NONE',  ( 0.0000000000000000000, 0.0000000000000000000, 1.000000000000000000 ) ) ;
#168 = ADVANCED_FACE ( 'NONE', ( #113 ), #177, .F. ) ;
#169 = PERSON_AND_ORGANIZATION ( #212, #67 ) ;
#170 = PRODUCT_DEFINITION ( 'UNKNOWN', '', #139, #36 ) ;
#171 = APPROVAL_STATUS ( 'not_yet_approved' ) ;
#172 = PERSON_AND_ORGANIZATION_ROLE ( 'design_supplier' ) ;
#173 = SECURITY_CLASSIFICATION ( '', '', #131 ) ;
#174 = LOCAL_TIME ( 15, 19, 53.00000000000000000, #125 ) ;
#175 = AXIS2_PLACEMENT_3D ( 'NONE', #92, #3, #57 ) ;
#176 = PERSON_AND_ORGANIZATION ( #212, #67 ) ;
#177 =( BOUNDED_SURFACE ( )  B_SPLINE_SURFACE ( 3, 3, ( 
 ( #54, #56, #1, #112 ),
 ( #145, #4, #129, #203 ),
 ( #205, #19, #126, #35 ),
 ( #163, #55, #115, #94 ) ),
 .UNSPECIFIED., .F., .F., .F. ) 
 B_SPLINE_SURFACE_WITH_KNOTS ( ( 4, 4 ),
 ( 4, 4 ),
 ( 0.0000000000000000000, 1.000000000000000000 ),
 ( 0.0000000000000000000, 1.000000000000000000 ),
 .UNSPECIFIED. ) 
 GEOMETRIC_REPRESENTATION_ITEM ( )  RATIONAL_B_SPLINE_SURFACE ( (
 ( 1.000000000000000000, 0.9999943816084000400, 0.9999943816084000400, 1.000000000000000000),
 ( 0.9999772576571837000, 0.9999716393933590900, 0.9999716393933590900, 0.9999772576571837000),
 ( 0.9999772576571837000, 0.9999716393933590900, 0.9999716393933590900, 0.9999772576571837000),
 ( 1.000000000000000000, 0.9999943816084000400, 0.9999943816084000400, 1.000000000000000000) ) ) 
 REPRESENTATION_ITEM ( '' )  SURFACE ( )  );
#178 = ORIENTED_EDGE ( 'NONE', *, *, #153, .T. ) ;
#179 = LOCAL_TIME ( 15, 19, 53.00000000000000000, #20 ) ;
#180 = CARTESIAN_POINT ( 'NONE',  ( 8.578324375456117500E-013, 4.284229618287085400, 0.01769394511263364100 ) ) ;
#181 = CARTESIAN_POINT ( 'NONE',  ( 12.77576245158956800, 12.85239655460531500, -0.1055319217234159500 ) ) ;
#182 = CIRCLE ( 'NONE', #29, 12.69999999999999900 ) ;
#183 = DIRECTION ( 'NONE',  ( 1.000000000000000000, 0.0000000000000000000, 0.0000000000000000000 ) ) ;
#184 = EDGE_CURVE ( 'NONE', #211, #230, #104, .T. ) ;
#185 = DIRECTION ( 'NONE',  ( 1.000000000000000000, 0.0000000000000000000, 0.0000000000000000000 ) ) ;
#186 =( BOUNDED_SURFACE ( )  B_SPLINE_SURFACE ( 3, 3, ( 
 ( #68, #107, #160, #181 ),
 ( #180, #13, #69, #138 ),
 ( #105, #85, #122, #14 ),
 ( #87, #140, #234, #143 ) ),
 .UNSPECIFIED., .F., .F., .T. ) 
 B_SPLINE_SURFACE_WITH_KNOTS ( ( 4, 4 ),
 ( 4, 4 ),
 ( 0.0000000000000000000, 1.000000000000000000 ),
 ( 0.0000000000000000000, 1.000000000000000000 ),
 .UNSPECIFIED. ) 
 GEOMETRIC_REPRESENTATION_ITEM ( )  RATIONAL_B_SPLINE_SURFACE ( (
 ( 1.000000000000000000, 0.9999943816084000400, 0.9999943816084000400, 1.000000000000000000),
 ( 0.9999772576571837000, 0.9999716393933590900, 0.9999716393933590900, 0.9999772576571837000),
 ( 0.9999772576571837000, 0.9999716393933590900, 0.9999716393933590900, 0.9999772576571837000),
 ( 1.000000000000000000, 0.9999943816084000400, 0.9999943816084000400, 1.000000000000000000) ) ) 
 REPRESENTATION_ITEM ( '' )  SURFACE ( )  );
#187 = CARTESIAN_POINT ( 'NONE',  ( -12.69999999999999900, 3.997792089092478900E-015, -0.05182926936820780200 ) ) ;
#188 = CC_DESIGN_PERSON_AND_ORGANIZATION_ASSIGNMENT ( #158, #149, ( #173 ) ) ;
#189 = COORDINATED_UNIVERSAL_TIME_OFFSET ( 2, 0, .AHEAD. ) ;
#190 = CARTESIAN_POINT ( 'NONE',  ( 4.996003610813200500E-016, 2.442490654175340100E-015, 3.900000000000000400 ) ) ;
#191 = CARTESIAN_POINT ( 'NONE',  ( -12.69999999999999900, 3.997792089092478900E-015, 3.900000000000000400 ) ) ;
#192 = AXIS2_PLACEMENT_3D ( 'NONE', #202, #89, #165 ) ;
#193 = EDGE_CURVE ( 'NONE', #16, #194, #73, .T. ) ;
#194 = VERTEX_POINT ( 'NONE', #117 ) ;
#195 = APPROVAL ( #171, 'UNSPECIFIED' ) ;
#196 = PRODUCT_DEFINITION_SHAPE ( 'NONE', 'NONE',  #170 ) ;
#197 = CC_DESIGN_DATE_AND_TIME_ASSIGNMENT ( #156, #42, ( #173 ) ) ;
#198 = APPROVAL_PERSON_ORGANIZATION ( #169, #102, #207 ) ;
#199 = CARTESIAN_POINT ( 'NONE',  ( 12.69999999999999900, 2.442490654175340100E-015, -0.05182926936820780200 ) ) ;
#200 = AXIS2_PLACEMENT_3D ( 'NONE', #116, #41, #148 ) ;
#201 = ORIENTED_EDGE ( 'NONE', *, *, #18, .T. ) ;
#202 = CARTESIAN_POINT ( 'NONE',  ( 4.996003610813200500E-016, 2.442490654175340100E-015, -0.05182926936820780200 ) ) ;
#203 = CARTESIAN_POINT ( 'NONE',  ( 4.753142324176451400E-013, 4.284229618287085400, 0.01769394511264954200 ) ) ;
#204 = CALENDAR_DATE ( 2019, 15, 1 ) ;
#205 = CARTESIAN_POINT ( 'NONE',  ( -12.77634357625614900, -4.284229618287188400, -0.03475973430313582200 ) ) ;
#206 =( NAMED_UNIT ( * ) PLANE_ANGLE_UNIT ( ) SI_UNIT ( $, .RADIAN. ) );
#207 = APPROVAL_ROLE ( '' ) ;
#208 = ORIENTED_EDGE ( 'NONE', *, *, #184, .F. ) ;
#209 = COORDINATED_UNIVERSAL_TIME_OFFSET ( 2, 0, .AHEAD. ) ;
#210 = CC_DESIGN_PERSON_AND_ORGANIZATION_ASSIGNMENT ( #77, #63, ( #46 ) ) ;
#211 = VERTEX_POINT ( 'NONE', #187 ) ;
#212 = PERSON ( 'UNSPECIFIED', 'UNSPECIFIED', 'UNSPECIFIED', ('UNSPECIFIED'), ('UNSPECIFIED'), ('UNSPECIFIED') ) ;
#213 = FACE_OUTER_BOUND ( 'NONE', #88, .T. ) ;
#214 = DATE_AND_TIME ( #8, #109 ) ;
#215 = AXIS2_PLACEMENT_3D ( 'NONE', #223, #220, #185 ) ;
#216 = CC_DESIGN_APPROVAL ( #195, ( #173 ) ) ;
#217 = CIRCLE ( 'NONE', #33, 12.69999999999999900 ) ;
#218 = CALENDAR_DATE ( 2019, 15, 1 ) ;
#219 = DIRECTION ( 'NONE',  ( 1.000000000000000000, 0.0000000000000000000, 0.0000000000000000000 ) ) ;
#220 = DIRECTION ( 'NONE',  ( 0.0000000000000000000, 0.0000000000000000000, 1.000000000000000000 ) ) ;
#221 = DIRECTION ( 'NONE',  ( 1.000000000000000000, 0.0000000000000000000, 0.0000000000000000000 ) ) ;
#222 = ADVANCED_FACE ( 'NONE', ( #213 ), #26, .T. ) ;
#223 = CARTESIAN_POINT ( 'NONE',  ( 4.996003610813200500E-016, 2.442490654175340100E-015, -0.05182926936820780200 ) ) ;
#224 = DATE_AND_TIME ( #30, #80 ) ;
#225 = DIRECTION ( 'NONE',  ( 0.0000000000000000000, 0.0000000000000000000, 1.000000000000000000 ) ) ;
#226 = MECHANICAL_CONTEXT ( 'NONE', #98, 'mechanical' ) ;
#227 = CYLINDRICAL_SURFACE ( 'NONE', #192, 12.69999999999999900 ) ;
#228 = APPROVAL_STATUS ( 'not_yet_approved' ) ;
#229 = MANIFOLD_SOLID_BREP ( 'Imported1', #232 ) ;
#230 = VERTEX_POINT ( 'NONE', #191 ) ;
#231 = CIRCLE ( 'NONE', #146, 12.69999999999999900 ) ;
#232 = CLOSED_SHELL ( 'NONE', ( #168, #130, #37, #15, #222 ) ) ;
#233 = ORIENTED_EDGE ( 'NONE', *, *, #93, .F. ) ;
#234 = CARTESIAN_POINT ( 'NONE',  ( 8.517258710942140700, -12.85239655460542700, -0.07056449089443897500 ) ) ;
#235 = DIRECTION ( 'NONE',  ( 0.0000000000000000000, 0.0000000000000000000, 1.000000000000000000 ) ) ;
ENDSEC;
END-ISO-10303-21;
