ISO-10303-21;
HEADER;
FILE_DESCRIPTION (( 'STEP AP203' ),
    '1' );
FILE_NAME ('112-0260E BK7 pl-cv 25.4 F-1500.STEP',
    '2019-01-15T12:46:12',
    ( '' ),
    ( '' ),
    'SwSTEP 2.0',
    'SolidWorks 2017',
    '' );
FILE_SCHEMA (( 'CONFIG_CONTROL_DESIGN' ));
ENDSEC;

DATA;
#1 = CARTESIAN_POINT ( 'NONE',  ( -3.676093752292064000E-013, -12.69999999999737700, -0.1036503941679010900 ) ) ;
#2 = VERTEX_POINT ( 'NONE', #156 ) ;
#3 = DATE_TIME_ROLE ( 'classification_date' ) ;
#4 = ORIENTED_EDGE ( 'NONE', *, *, #152, .F. ) ;
#5 = PERSON ( 'UNSPECIFIED', 'UNSPECIFIED', 'UNSPECIFIED', ('UNSPECIFIED'), ('UNSPECIFIED'), ('UNSPECIFIED') ) ;
#6 = CYLINDRICAL_SURFACE ( 'NONE', #84, 12.69999999999999900 ) ;
#7 = CARTESIAN_POINT ( 'NONE',  ( 12.69999999999999900, 2.442490654175340100E-015, -0.1036503941679820000 ) ) ;
#8 = LINE ( 'NONE', #229, #68 ) ;
#9 = CARTESIAN_POINT ( 'NONE',  ( -12.69999999999999900, 3.997792089092478900E-015, -0.1036503941679820000 ) ) ;
#10 = CC_DESIGN_PERSON_AND_ORGANIZATION_ASSIGNMENT ( #148, #72, ( #145 ) ) ;
#11 = CARTESIAN_POINT ( 'NONE',  ( 4.996003610813200500E-016, 2.442490654175340100E-015, -0.1036503941679820000 ) ) ;
#12 = CIRCLE ( 'NONE', #59, 12.69999999999999900 ) ;
#13 = CALENDAR_DATE ( 2019, 15, 1 ) ;
#14 = EDGE_CURVE ( 'NONE', #141, #64, #12, .T. ) ;
#15 = VERTEX_POINT ( 'NONE', #7 ) ;
#16 = CC_DESIGN_PERSON_AND_ORGANIZATION_ASSIGNMENT ( #223, #90, ( #114 ) ) ;
#17 = DIRECTION ( 'NONE',  ( 1.000000000000000000, 0.0000000000000000000, 0.0000000000000000000 ) ) ;
#18 = DIRECTION ( 'NONE',  ( 1.000000000000000000, 0.0000000000000000000, 0.0000000000000000000 ) ) ;
#19 = DIRECTION ( 'NONE',  ( -2.987644363226529900E-016, 1.000000000000000000, 0.0000000000000000000 ) ) ;
#20 = APPROVAL ( #43, 'UNSPECIFIED' ) ;
#21 = APPROVAL_ROLE ( '' ) ;
#22 =( LENGTH_UNIT ( ) NAMED_UNIT ( * ) SI_UNIT ( .MILLI., .METRE. ) );
#23 = CC_DESIGN_PERSON_AND_ORGANIZATION_ASSIGNMENT ( #29, #73, ( #167 ) ) ;
#24 =( BOUNDED_SURFACE ( )  B_SPLINE_SURFACE ( 3, 3, ( 
 ( #106, #163, #70, #186 ),
 ( #182, #119, #157, #232 ),
 ( #33, #218, #217, #142 ),
 ( #40, #86, #66, #159 ) ),
 .UNSPECIFIED., .F., .F., .F. ) 
 B_SPLINE_SURFACE_WITH_KNOTS ( ( 4, 4 ),
 ( 4, 4 ),
 ( 0.0000000000000000000, 1.000000000000000000 ),
 ( 0.0000000000000000000, 1.000000000000000000 ),
 .UNSPECIFIED. ) 
 GEOMETRIC_REPRESENTATION_ITEM ( )  RATIONAL_B_SPLINE_SURFACE ( (
 ( 1.000000000000000000, 0.9999775308079427200, 0.9999775308079427200, 1.000000000000000000),
 ( 0.9999090495031645000, 0.9998865823546914100, 0.9998865823546914100, 0.9999090495031645000),
 ( 0.9999090495031645000, 0.9998865823546914100, 0.9998865823546914100, 0.9999090495031645000),
 ( 1.000000000000000000, 0.9999775308079427200, 0.9999775308079427200, 1.000000000000000000) ) ) 
 REPRESENTATION_ITEM ( '' )  SURFACE ( )  );
#25 = FACE_OUTER_BOUND ( 'NONE', #57, .T. ) ;
#26 = DIRECTION ( 'NONE',  ( 1.000000000000000000, 0.0000000000000000000, 0.0000000000000000000 ) ) ;
#27 = LINE ( 'NONE', #62, #188 ) ;
#28 = EDGE_CURVE ( 'NONE', #193, #15, #166, .T. ) ;
#29 = PERSON_AND_ORGANIZATION ( #5, #179 ) ;
#30 = AXIS2_PLACEMENT_3D ( 'NONE', #80, #31, #97 ) ;
#31 = DIRECTION ( 'NONE',  ( -0.0000000000000000000, -0.0000000000000000000, -1.000000000000000000 ) ) ;
#32 = DATE_AND_TIME ( #58, #99 ) ;
#33 = CARTESIAN_POINT ( 'NONE',  ( -12.77677422506036300, -4.284518419334547800, -0.06951516366743899800 ) ) ;
#34 = CC_DESIGN_APPROVAL ( #112, ( #185 ) ) ;
#35 = APPROVAL_DATE_TIME ( #78, #216 ) ;
#36 = AXIS2_PLACEMENT_3D ( 'NONE', #235, #184, #26 ) ;
#37 = ORIENTED_EDGE ( 'NONE', *, *, #28, .F. ) ;
#38 = DATE_AND_TIME ( #118, #48 ) ;
#39 = CARTESIAN_POINT ( 'NONE',  ( 4.258389259850249100, -12.85238622076697400, -0.1061528723814697800 ) ) ;
#40 = CARTESIAN_POINT ( 'NONE',  ( -12.77445016998001000, -12.85238622076697700, -0.2110364638877593200 ) ) ;
#41 = EDGE_CURVE ( 'NONE', #64, #2, #8, .T. ) ;
#42 = APPROVAL_STATUS ( 'not_yet_approved' ) ;
#43 = APPROVAL_STATUS ( 'not_yet_approved' ) ;
#44 = CALENDAR_DATE ( 2019, 15, 1 ) ;
#45 = CARTESIAN_POINT ( 'NONE',  ( 4.996003610813200500E-016, 2.442490654175340100E-015, -0.1036503941679820000 ) ) ;
#46 = CARTESIAN_POINT ( 'NONE',  ( -1.705302565824239900E-013, 1.136868377216160000E-013, -778.1000000000000200 ) ) ;
#47 = ORIENTED_EDGE ( 'NONE', *, *, #101, .T. ) ;
#48 = LOCAL_TIME ( 14, 46, 11.00000000000000000, #164 ) ;
#49 = EDGE_CURVE ( 'NONE', #15, #201, #27, .T. ) ;
#50 = DIRECTION ( 'NONE',  ( 1.000000000000000000, 0.0000000000000000000, 0.0000000000000000000 ) ) ;
#51 = CARTESIAN_POINT ( 'NONE',  ( 4.259163988395253700, 4.284518419334698800, 0.03538750930540535100 ) ) ;
#52 = CARTESIAN_POINT ( 'NONE',  ( 12.77445016998006700, -12.85238622076697200, -0.2110364638877336400 ) ) ;
#53 = APPLICATION_CONTEXT ( 'configuration controlled 3d designs of mechanical parts and assemblies' ) ;
#54 = APPLICATION_PROTOCOL_DEFINITION ( 'international standard', 'config_control_design', 1994, #53 ) ;
#55 = ORIENTED_EDGE ( 'NONE', *, *, #49, .F. ) ;
#56 =( NAMED_UNIT ( * ) PLANE_ANGLE_UNIT ( ) SI_UNIT ( $, .RADIAN. ) );
#57 = EDGE_LOOP ( 'NONE', ( #98, #154, #147, #47, #55 ) ) ;
#58 = CALENDAR_DATE ( 2019, 15, 1 ) ;
#59 = AXIS2_PLACEMENT_3D ( 'NONE', #11, #138, #135 ) ;
#60 = DESIGN_CONTEXT ( 'detailed design', #53, 'design' ) ;
#61 = CIRCLE ( 'NONE', #30, 12.69999999999999900 ) ;
#62 = CARTESIAN_POINT ( 'NONE',  ( 12.69999999999999900, 2.442490654175340100E-015, -0.1036503941679820000 ) ) ;
#63 = DIRECTION ( 'NONE',  ( 0.0000000000000000000, 0.0000000000000000000, 1.000000000000000000 ) ) ;
#64 = VERTEX_POINT ( 'NONE', #9 ) ;
#65 = DIRECTION ( 'NONE',  ( 1.000000000000000000, 2.987644363226529900E-016, 2.581932769862619900E-016 ) ) ;
#66 = CARTESIAN_POINT ( 'NONE',  ( -4.258389259850846800, -12.85238622076697700, -0.1061528723814732900 ) ) ;
#67 = CARTESIAN_POINT ( 'NONE',  ( -3.701595204919598100E-013, -4.284518419334544200, 0.03538750930540512200 ) ) ;
#68 = VECTOR ( 'NONE', #113, 1000.000000000000000 ) ;
#69 = PERSON_AND_ORGANIZATION ( #5, #179 ) ;
#70 = CARTESIAN_POINT ( 'NONE',  ( -4.258389259850853900, 12.85238622076712500, -0.1061528723814732500 ) ) ;
#71 = AXIS2_PLACEMENT_3D ( 'NONE', #45, #173, #17 ) ;
#72 = PERSON_AND_ORGANIZATION_ROLE ( 'creator' ) ;
#73 = PERSON_AND_ORGANIZATION_ROLE ( 'design_owner' ) ;
#74 = APPROVAL_STATUS ( 'not_yet_approved' ) ;
#75 = ORIENTED_EDGE ( 'NONE', *, *, #41, .F. ) ;
#76 = PERSON_AND_ORGANIZATION ( #5, #179 ) ;
#77 = ADVANCED_FACE ( 'NONE', ( #139 ), #133, .T. ) ;
#78 = DATE_AND_TIME ( #44, #126 ) ;
#79 = DIRECTION ( 'NONE',  ( 0.0000000000000000000, 0.0000000000000000000, 1.000000000000000000 ) ) ;
#80 = CARTESIAN_POINT ( 'NONE',  ( 4.996003610813200500E-016, 2.442490654175340100E-015, 3.900000000000000400 ) ) ;
#81 = APPROVAL_DATE_TIME ( #32, #20 ) ;
#82 = ADVANCED_BREP_SHAPE_REPRESENTATION ( '112-0260E BK7 pl-cv 25.4 F-1500', ( #192, #36 ), #224 ) ;
#83 = CARTESIAN_POINT ( 'NONE',  ( 4.259163988395255500, -4.284518419334546000, 0.03538750930540622600 ) ) ;
#84 = AXIS2_PLACEMENT_3D ( 'NONE', #177, #116, #153 ) ;
#85 = CARTESIAN_POINT ( 'NONE',  ( 8.516634995851657000, 12.85238622076712800, -0.1411148551177128800 ) ) ;
#86 = CARTESIAN_POINT ( 'NONE',  ( -8.516634995851935800, -12.85238622076697700, -0.1411148551177460500 ) ) ;
#87 = CARTESIAN_POINT ( 'NONE',  ( 8.518184426830391200, 4.284518419334700600, 0.0004191659373921200200 ) ) ;
#88 = ORIENTED_EDGE ( 'NONE', *, *, #171, .F. ) ;
#89 = CC_DESIGN_DATE_AND_TIME_ASSIGNMENT ( #38, #3, ( #185 ) ) ;
#90 = PERSON_AND_ORGANIZATION_ROLE ( 'creator' ) ;
#91 = EDGE_LOOP ( 'NONE', ( #208, #219, #88 ) ) ;
#92 = ADVANCED_FACE ( 'NONE', ( #174 ), #6, .T. ) ;
#93 = AXIS2_PLACEMENT_3D ( 'NONE', #104, #220, #200 ) ;
#94 = DIRECTION ( 'NONE',  ( 0.0000000000000000000, 0.0000000000000000000, 1.000000000000000000 ) ) ;
#95 = FACE_OUTER_BOUND ( 'NONE', #204, .T. ) ;
#96 = CARTESIAN_POINT ( 'NONE',  ( -3.751979919118002200E-013, 12.69999999999749100, -0.1036503941679010900 ) ) ;
#97 = DIRECTION ( 'NONE',  ( 1.000000000000000000, 0.0000000000000000000, 0.0000000000000000000 ) ) ;
#98 = ORIENTED_EDGE ( 'NONE', *, *, #152, .T. ) ;
#99 = LOCAL_TIME ( 14, 46, 11.00000000000000000, #136 ) ;
#100 =( BOUNDED_SURFACE ( )  B_SPLINE_SURFACE ( 3, 3, ( 
 ( #203, #198, #85, #178 ),
 ( #146, #51, #87, #143 ),
 ( #67, #83, #144, #103 ),
 ( #199, #39, #161, #52 ) ),
 .UNSPECIFIED., .F., .F., .F. ) 
 B_SPLINE_SURFACE_WITH_KNOTS ( ( 4, 4 ),
 ( 4, 4 ),
 ( 0.0000000000000000000, 1.000000000000000000 ),
 ( 0.0000000000000000000, 1.000000000000000000 ),
 .UNSPECIFIED. ) 
 GEOMETRIC_REPRESENTATION_ITEM ( )  RATIONAL_B_SPLINE_SURFACE ( (
 ( 1.000000000000000000, 0.9999775308079427200, 0.9999775308079427200, 1.000000000000000000),
 ( 0.9999090495031645000, 0.9998865823546914100, 0.9998865823546914100, 0.9999090495031645000),
 ( 0.9999090495031645000, 0.9998865823546914100, 0.9998865823546914100, 0.9999090495031645000),
 ( 1.000000000000000000, 0.9999775308079427200, 0.9999775308079427200, 1.000000000000000000) ) ) 
 REPRESENTATION_ITEM ( '' )  SURFACE ( )  );
#101 = EDGE_CURVE ( 'NONE', #2, #201, #61, .T. ) ;
#102 = CIRCLE ( 'NONE', #71, 12.69999999999999900 ) ;
#103 = CARTESIAN_POINT ( 'NONE',  ( 12.77677422506041600, -4.284518419334540700, -0.06951516366741335200 ) ) ;
#104 = CARTESIAN_POINT ( 'NONE',  ( 4.996003610813200500E-016, 2.442490654175340100E-015, -0.1036503941679820000 ) ) ;
#105 = CLOSED_SHELL ( 'NONE', ( #170, #168, #189, #92, #77 ) ) ;
#106 = CARTESIAN_POINT ( 'NONE',  ( -12.77445016998001700, 12.85238622076712100, -0.2110364638877593200 ) ) ;
#107 = SECURITY_CLASSIFICATION_LEVEL ( 'unclassified' ) ;
#108 = APPROVAL_ROLE ( '' ) ;
#109 = ORIENTED_EDGE ( 'NONE', *, *, #49, .T. ) ;
#110 = CC_DESIGN_APPROVAL ( #20, ( #145 ) ) ;
#111 = FACE_OUTER_BOUND ( 'NONE', #91, .T. ) ;
#112 = APPROVAL ( #74, 'UNSPECIFIED' ) ;
#113 = DIRECTION ( 'NONE',  ( 0.0000000000000000000, 0.0000000000000000000, 1.000000000000000000 ) ) ;
#114 = PRODUCT_DEFINITION ( 'UNKNOWN', '', #145, #60 ) ;
#115 = CARTESIAN_POINT ( 'NONE',  ( 4.996003610813200500E-016, 2.442490654175340100E-015, -0.1036503941679820000 ) ) ;
#116 = DIRECTION ( 'NONE',  ( 0.0000000000000000000, 0.0000000000000000000, 1.000000000000000000 ) ) ;
#117 = ORIENTED_EDGE ( 'NONE', *, *, #187, .T. ) ;
#118 = CALENDAR_DATE ( 2019, 15, 1 ) ;
#119 = CARTESIAN_POINT ( 'NONE',  ( -8.518184426830670100, 4.284518419334695200, 0.0004191659373589299400 ) ) ;
#120 = AXIS2_PLACEMENT_3D ( 'NONE', #123, #122, #50 ) ;
#121 = COORDINATED_UNIVERSAL_TIME_OFFSET ( 2, 0, .AHEAD. ) ;
#122 = DIRECTION ( 'NONE',  ( 0.0000000000000000000, 0.0000000000000000000, 1.000000000000000000 ) ) ;
#123 = CARTESIAN_POINT ( 'NONE',  ( 4.996003610813200500E-016, 2.442490654175340100E-015, -0.1036503941679820000 ) ) ;
#124 = EDGE_LOOP ( 'NONE', ( #227, #160 ) ) ;
#125 = CARTESIAN_POINT ( 'NONE',  ( 12.69999999999999900, 2.442490654175340100E-015, 3.900000000000000400 ) ) ;
#126 = LOCAL_TIME ( 14, 46, 11.00000000000000000, #172 ) ;
#127 = APPLICATION_PROTOCOL_DEFINITION ( 'international standard', 'config_control_design', 1994, #165 ) ;
#128 = PERSON_AND_ORGANIZATION_ROLE ( 'design_supplier' ) ;
#129 = ORIENTED_EDGE ( 'NONE', *, *, #171, .T. ) ;
#130 = APPROVAL_PERSON_ORGANIZATION ( #202, #20, #108 ) ;
#131 = APPROVAL_PERSON_ORGANIZATION ( #233, #216, #21 ) ;
#132 = DIRECTION ( 'NONE',  ( 1.000000000000000000, 0.0000000000000000000, 0.0000000000000000000 ) ) ;
#133 = PLANE ( 'NONE',  #181 ) ;
#134 = CIRCLE ( 'NONE', #175, 778.1000000000000200 ) ;
#135 = DIRECTION ( 'NONE',  ( 1.000000000000000000, 0.0000000000000000000, 0.0000000000000000000 ) ) ;
#136 = COORDINATED_UNIVERSAL_TIME_OFFSET ( 2, 0, .AHEAD. ) ;
#137 = AXIS2_PLACEMENT_3D ( 'NONE', #115, #94, #132 ) ;
#138 = DIRECTION ( 'NONE',  ( 0.0000000000000000000, 0.0000000000000000000, 1.000000000000000000 ) ) ;
#139 = FACE_OUTER_BOUND ( 'NONE', #124, .T. ) ;
#140 = APPROVAL_DATE_TIME ( #191, #112 ) ;
#141 = VERTEX_POINT ( 'NONE', #96 ) ;
#142 = CARTESIAN_POINT ( 'NONE',  ( -5.585809592645318800E-013, -4.284518419334544200, 0.03538750930540487900 ) ) ;
#143 = CARTESIAN_POINT ( 'NONE',  ( 12.77677422506041300, 4.284518419334698800, -0.06951516366741421200 ) ) ;
#144 = CARTESIAN_POINT ( 'NONE',  ( 8.518184426830393000, -4.284518419334544200, 0.0004191659373930009400 ) ) ;
#145 = PRODUCT_DEFINITION_FORMATION_WITH_SPECIFIED_SOURCE ( 'ANY', '', #167, .NOT_KNOWN. ) ;
#146 = CARTESIAN_POINT ( 'NONE',  ( -3.727196439528928500E-013, 4.284518419334695200, 0.03538750930540425500 ) ) ;
#147 = ORIENTED_EDGE ( 'NONE', *, *, #41, .T. ) ;
#148 = PERSON_AND_ORGANIZATION ( #5, #179 ) ;
#149 =( NAMED_UNIT ( * ) SI_UNIT ( $, .STERADIAN. ) SOLID_ANGLE_UNIT ( ) );
#150 = CIRCLE ( 'NONE', #120, 12.69999999999999900 ) ;
#151 = MECHANICAL_CONTEXT ( 'NONE', #165, 'mechanical' ) ;
#152 = EDGE_CURVE ( 'NONE', #15, #141, #102, .T. ) ;
#153 = DIRECTION ( 'NONE',  ( 1.000000000000000000, 0.0000000000000000000, 0.0000000000000000000 ) ) ;
#154 = ORIENTED_EDGE ( 'NONE', *, *, #14, .T. ) ;
#155 = EDGE_CURVE ( 'NONE', #141, #193, #134, .T. ) ;
#156 = CARTESIAN_POINT ( 'NONE',  ( -12.69999999999999900, 3.997792089092478900E-015, 3.900000000000000400 ) ) ;
#157 = CARTESIAN_POINT ( 'NONE',  ( -4.259163988395857600, 4.284518419334697000, 0.03538750930540186100 ) ) ;
#158 = DIRECTION ( 'NONE',  ( -0.0000000000000000000, -0.0000000000000000000, -1.000000000000000000 ) ) ;
#159 = CARTESIAN_POINT ( 'NONE',  ( -5.568462357885550800E-013, -12.85238622076697400, -0.1061528723814711400 ) ) ;
#160 = ORIENTED_EDGE ( 'NONE', *, *, #101, .F. ) ;
#161 = CARTESIAN_POINT ( 'NONE',  ( 8.516634995851664100, -12.85238622076697400, -0.1411148551177128800 ) ) ;
#162 = CALENDAR_DATE ( 2019, 15, 1 ) ;
#163 = CARTESIAN_POINT ( 'NONE',  ( -8.516634995851942900, 12.85238622076712500, -0.1411148551177460700 ) ) ;
#164 = COORDINATED_UNIVERSAL_TIME_OFFSET ( 2, 0, .AHEAD. ) ;
#165 = APPLICATION_CONTEXT ( 'configuration controlled 3d designs of mechanical parts and assemblies' ) ;
#166 = CIRCLE ( 'NONE', #137, 12.69999999999999900 ) ;
#167 = PRODUCT ( '112-0260E BK7 pl-cv 25.4 F-1500', '112-0260E BK7 pl-cv 25.4 F-1500', '', ( #151 ) ) ;
#168 = ADVANCED_FACE ( 'NONE', ( #25 ), #209, .T. ) ;
#169 = CC_DESIGN_PERSON_AND_ORGANIZATION_ASSIGNMENT ( #196, #225, ( #185 ) ) ;
#170 = ADVANCED_FACE ( 'NONE', ( #111 ), #24, .F. ) ;
#171 = EDGE_CURVE ( 'NONE', #64, #193, #150, .T. ) ;
#172 = COORDINATED_UNIVERSAL_TIME_OFFSET ( 2, 0, .AHEAD. ) ;
#173 = DIRECTION ( 'NONE',  ( 0.0000000000000000000, 0.0000000000000000000, 1.000000000000000000 ) ) ;
#174 = FACE_OUTER_BOUND ( 'NONE', #194, .T. ) ;
#175 = AXIS2_PLACEMENT_3D ( 'NONE', #46, #65, #19 ) ;
#176 = COORDINATED_UNIVERSAL_TIME_OFFSET ( 2, 0, .AHEAD. ) ;
#177 = CARTESIAN_POINT ( 'NONE',  ( 4.996003610813200500E-016, 2.442490654175340100E-015, -0.1036503941679820000 ) ) ;
#178 = CARTESIAN_POINT ( 'NONE',  ( 12.77445016998006000, 12.85238622076712800, -0.2110364638877336400 ) ) ;
#179 = ORGANIZATION ( 'UNSPECIFIED', 'UNSPECIFIED', '' ) ;
#180 = CC_DESIGN_DATE_AND_TIME_ASSIGNMENT ( #228, #226, ( #114 ) ) ;
#181 = AXIS2_PLACEMENT_3D ( 'NONE', #231, #79, #211 ) ;
#182 = CARTESIAN_POINT ( 'NONE',  ( -12.77677422506036500, 4.284518419334691700, -0.06951516366743987200 ) ) ;
#183 = CARTESIAN_POINT ( 'NONE',  ( 4.996003610813200500E-016, 2.442490654175340100E-015, 3.900000000000000400 ) ) ;
#184 = DIRECTION ( 'NONE',  ( 0.0000000000000000000, 0.0000000000000000000, 1.000000000000000000 ) ) ;
#185 = SECURITY_CLASSIFICATION ( '', '', #107 ) ;
#186 = CARTESIAN_POINT ( 'NONE',  ( -5.637851296924623100E-013, 12.85238622076712500, -0.1061528723814711100 ) ) ;
#187 = EDGE_CURVE ( 'NONE', #201, #2, #234, .T. ) ;
#188 = VECTOR ( 'NONE', #63, 1000.000000000000000 ) ;
#189 = ADVANCED_FACE ( 'NONE', ( #95 ), #100, .F. ) ;
#190 = ORIENTED_EDGE ( 'NONE', *, *, #28, .T. ) ;
#191 = DATE_AND_TIME ( #162, #212 ) ;
#192 = MANIFOLD_SOLID_BREP ( 'Imported1', #105 ) ;
#193 = VERTEX_POINT ( 'NONE', #1 ) ;
#194 = EDGE_LOOP ( 'NONE', ( #75, #129, #190, #109, #117 ) ) ;
#195 = CC_DESIGN_PERSON_AND_ORGANIZATION_ASSIGNMENT ( #69, #128, ( #145 ) ) ;
#196 = PERSON_AND_ORGANIZATION ( #5, #179 ) ;
#197 = PRODUCT_RELATED_PRODUCT_CATEGORY ( 'detail', '', ( #167 ) ) ;
#198 = CARTESIAN_POINT ( 'NONE',  ( 4.258389259850242000, 12.85238622076712800, -0.1061528723814697800 ) ) ;
#199 = CARTESIAN_POINT ( 'NONE',  ( -3.675632015228043000E-013, -12.85238622076697400, -0.1061528723814708600 ) ) ;
#200 = DIRECTION ( 'NONE',  ( 1.000000000000000000, 0.0000000000000000000, 0.0000000000000000000 ) ) ;
#201 = VERTEX_POINT ( 'NONE', #125 ) ;
#202 = PERSON_AND_ORGANIZATION ( #5, #179 ) ;
#203 = CARTESIAN_POINT ( 'NONE',  ( -3.752428733721012500E-013, 12.85238622076712500, -0.1061528723814708600 ) ) ;
#204 = EDGE_LOOP ( 'NONE', ( #206, #4, #37 ) ) ;
#205 = APPROVAL_ROLE ( '' ) ;
#206 = ORIENTED_EDGE ( 'NONE', *, *, #155, .F. ) ;
#207 = AXIS2_PLACEMENT_3D ( 'NONE', #183, #158, #18 ) ;
#208 = ORIENTED_EDGE ( 'NONE', *, *, #14, .F. ) ;
#209 = CYLINDRICAL_SURFACE ( 'NONE', #93, 12.69999999999999900 ) ;
#210 = PRODUCT_DEFINITION_SHAPE ( 'NONE', 'NONE',  #114 ) ;
#211 = DIRECTION ( 'NONE',  ( 1.000000000000000000, 0.0000000000000000000, -0.0000000000000000000 ) ) ;
#212 = LOCAL_TIME ( 14, 46, 11.00000000000000000, #176 ) ;
#213 = SHAPE_DEFINITION_REPRESENTATION ( #210, #82 ) ;
#214 = LOCAL_TIME ( 14, 46, 11.00000000000000000, #121 ) ;
#215 = UNCERTAINTY_MEASURE_WITH_UNIT (LENGTH_MEASURE( 1.000000000000000100E-005 ), #22, 'distance_accuracy_value', 'NONE');
#216 = APPROVAL ( #42, 'UNSPECIFIED' ) ;
#217 = CARTESIAN_POINT ( 'NONE',  ( -4.259163988395855900, -4.284518419334547800, 0.03538750930540274900 ) ) ;
#218 = CARTESIAN_POINT ( 'NONE',  ( -8.518184426830668300, -4.284518419334549600, 0.0004191659373597974100 ) ) ;
#219 = ORIENTED_EDGE ( 'NONE', *, *, #155, .T. ) ;
#220 = DIRECTION ( 'NONE',  ( 0.0000000000000000000, 0.0000000000000000000, 1.000000000000000000 ) ) ;
#221 = APPROVAL_PERSON_ORGANIZATION ( #76, #112, #205 ) ;
#222 = CC_DESIGN_SECURITY_CLASSIFICATION ( #185, ( #145 ) ) ;
#223 = PERSON_AND_ORGANIZATION ( #5, #179 ) ;
#224 =( GEOMETRIC_REPRESENTATION_CONTEXT ( 3 ) GLOBAL_UNCERTAINTY_ASSIGNED_CONTEXT ( ( #215 ) ) GLOBAL_UNIT_ASSIGNED_CONTEXT ( ( #22, #56, #149 ) ) REPRESENTATION_CONTEXT ( 'NONE', 'WORKASPACE' ) );
#225 = PERSON_AND_ORGANIZATION_ROLE ( 'classification_officer' ) ;
#226 = DATE_TIME_ROLE ( 'creation_date' ) ;
#227 = ORIENTED_EDGE ( 'NONE', *, *, #187, .F. ) ;
#228 = DATE_AND_TIME ( #13, #214 ) ;
#229 = CARTESIAN_POINT ( 'NONE',  ( -12.69999999999999900, 3.997792089092478900E-015, -0.1036503941679820000 ) ) ;
#230 = CC_DESIGN_APPROVAL ( #216, ( #114 ) ) ;
#231 = CARTESIAN_POINT ( 'NONE',  ( 0.0000000000000000000, 26.11199999999999800, 3.899999999999999900 ) ) ;
#232 = CARTESIAN_POINT ( 'NONE',  ( -5.603156827405087900E-013, 4.284518419334695200, 0.03538750930540398400 ) ) ;
#233 = PERSON_AND_ORGANIZATION ( #5, #179 ) ;
#234 = CIRCLE ( 'NONE', #207, 12.69999999999999900 ) ;
#235 = CARTESIAN_POINT ( 'NONE',  ( 0.0000000000000000000, 0.0000000000000000000, 0.0000000000000000000 ) ) ;
ENDSEC;
END-ISO-10303-21;
