ISO-10303-21;
HEADER;
FILE_DESCRIPTION (( 'STEP AP203' ),
    '1' );
FILE_NAME ('112-0259E BK7 pl-cv 25.4 F-1000.STEP',
    '2019-01-15T11:53:50',
    ( '' ),
    ( '' ),
    'SwSTEP 2.0',
    'SolidWorks 2017',
    '' );
FILE_SCHEMA (( 'CONFIG_CONTROL_DESIGN' ));
ENDSEC;

DATA;
#1 = APPROVAL_DATE_TIME ( #89, #47 ) ;
#2 = CC_DESIGN_PERSON_AND_ORGANIZATION_ASSIGNMENT ( #216, #138, ( #125 ) ) ;
#3 = DIRECTION ( 'NONE',  ( 1.000000000000000000, 0.0000000000000000000, 0.0000000000000000000 ) ) ;
#4 = DATE_AND_TIME ( #56, #74 ) ;
#5 = PERSON ( 'UNSPECIFIED', 'UNSPECIFIED', 'UNSPECIFIED', ('UNSPECIFIED'), ('UNSPECIFIED'), ('UNSPECIFIED') ) ;
#6 = CARTESIAN_POINT ( 'NONE',  ( 8.515594935237842800, -12.85236898862613800, -0.2116959190630345900 ) ) ;
#7 = AXIS2_PLACEMENT_3D ( 'NONE', #162, #185, #205 ) ;
#8 = CARTESIAN_POINT ( 'NONE',  ( 12.69999999999999900, 2.442490654175340100E-015, -0.1554985346002140100 ) ) ;
#9 =( BOUNDED_SURFACE ( )  B_SPLINE_SURFACE ( 3, 3, ( 
 ( #13, #173, #100, #101 ),
 ( #150, #170, #169, #30 ),
 ( #51, #65, #68, #192 ),
 ( #10, #87, #132, #14 ) ),
 .UNSPECIFIED., .F., .F., .T. ) 
 B_SPLINE_SURFACE_WITH_KNOTS ( ( 4, 4 ),
 ( 4, 4 ),
 ( 0.0000000000000000000, 1.000000000000000000 ),
 ( 0.0000000000000000000, 1.000000000000000000 ),
 .UNSPECIFIED. ) 
 GEOMETRIC_REPRESENTATION_ITEM ( )  RATIONAL_B_SPLINE_SURFACE ( (
 ( 1.000000000000000000, 0.9999494325593164500, 0.9999494325593164500, 1.000000000000000000),
 ( 0.9997953181683749700, 0.9997447610779277600, 0.9997447610779277600, 0.9997953181683749700),
 ( 0.9997953181683749700, 0.9997447610779277600, 0.9997447610779277600, 0.9997953181683749700),
 ( 1.000000000000000000, 0.9999494325593164500, 0.9999494325593164500, 1.000000000000000000) ) ) 
 REPRESENTATION_ITEM ( '' )  SURFACE ( )  );
#10 = CARTESIAN_POINT ( 'NONE',  ( -12.77226205289666100, -12.85236898862614100, -0.3165744032392892000 ) ) ;
#11 = FACE_OUTER_BOUND ( 'NONE', #155, .T. ) ;
#12 = APPLICATION_PROTOCOL_DEFINITION ( 'international standard', 'config_control_design', 1994, #66 ) ;
#13 = CARTESIAN_POINT ( 'NONE',  ( -12.77226205289666800, 12.85236898862609700, -0.3165744032392892000 ) ) ;
#14 = CARTESIAN_POINT ( 'NONE',  ( -2.237793284010081200E-013, -12.85236898862613800, -0.1592526990957849900 ) ) ;
#15 = VECTOR ( 'NONE', #186, 1000.000000000000000 ) ;
#16 = ORIENTED_EDGE ( 'NONE', *, *, #135, .T. ) ;
#17 = APPROVAL_ROLE ( '' ) ;
#18 = APPROVAL_STATUS ( 'not_yet_approved' ) ;
#19 = ADVANCED_FACE ( 'NONE', ( #11 ), #198, .F. ) ;
#20 = CC_DESIGN_APPROVAL ( #225, ( #179 ) ) ;
#21 = COORDINATED_UNIVERSAL_TIME_OFFSET ( 2, 0, .AHEAD. ) ;
#22 = CC_DESIGN_PERSON_AND_ORGANIZATION_ASSIGNMENT ( #171, #31, ( #57 ) ) ;
#23 = ORIENTED_EDGE ( 'NONE', *, *, #181, .F. ) ;
#24 = CIRCLE ( 'NONE', #7, 12.69999999999999900 ) ;
#25 = CARTESIAN_POINT ( 'NONE',  ( 4.996003610813200500E-016, 2.442490654175340100E-015, -0.1554985346002140100 ) ) ;
#26 = CARTESIAN_POINT ( 'NONE',  ( -12.69999999999999900, 3.997792089092478900E-015, -0.1554985346002140100 ) ) ;
#27 = ADVANCED_BREP_SHAPE_REPRESENTATION ( '112-0259E BK7 pl-cv 25.4 F-1000', ( #203, #32 ), #75 ) ;
#28 = DIRECTION ( 'NONE',  ( 1.000000000000000000, 0.0000000000000000000, 0.0000000000000000000 ) ) ;
#29 = CARTESIAN_POINT ( 'NONE',  ( 4.996003610813200500E-016, 2.442490654175340100E-015, -0.1554985346002140100 ) ) ;
#30 = CARTESIAN_POINT ( 'NONE',  ( -2.289834988289385400E-013, 4.285000057869045700, 0.05309510063437662000 ) ) ;
#31 = PERSON_AND_ORGANIZATION_ROLE ( 'creator' ) ;
#32 = AXIS2_PLACEMENT_3D ( 'NONE', #86, #209, #226 ) ;
#33 = CALENDAR_DATE ( 2019, 15, 1 ) ;
#34 = CLOSED_SHELL ( 'NONE', ( #235, #218, #19, #213, #200 ) ) ;
#35 = CC_DESIGN_DATE_AND_TIME_ASSIGNMENT ( #62, #178, ( #57 ) ) ;
#36 = LOCAL_TIME ( 13, 53, 50.00000000000000000, #220 ) ;
#37 = AXIS2_PLACEMENT_3D ( 'NONE', #29, #229, #175 ) ;
#38 = FACE_OUTER_BOUND ( 'NONE', #187, .T. ) ;
#39 = EDGE_CURVE ( 'NONE', #137, #202, #196, .T. ) ;
#40 = ORIENTED_EDGE ( 'NONE', *, *, #93, .F. ) ;
#41 = PRODUCT_DEFINITION_SHAPE ( 'NONE', 'NONE',  #57 ) ;
#42 = CARTESIAN_POINT ( 'NONE',  ( 8.519082159447895800, 4.285000057869048400, 0.0006304046260852812700 ) ) ;
#43 = PRODUCT ( '112-0259E BK7 pl-cv 25.4 F-1000', '112-0259E BK7 pl-cv 25.4 F-1000', '', ( #133 ) ) ;
#44 = COORDINATED_UNIVERSAL_TIME_OFFSET ( 2, 0, .AHEAD. ) ;
#45 = CARTESIAN_POINT ( 'NONE',  ( 4.996003610813200500E-016, 2.442490654175340100E-015, -0.1554985346002140100 ) ) ;
#46 = DIRECTION ( 'NONE',  ( 1.000000000000000000, 2.240877269159980100E-016, 1.936574019886349900E-016 ) ) ;
#47 = APPROVAL ( #18, 'UNSPECIFIED' ) ;
#48 =( LENGTH_UNIT ( ) NAMED_UNIT ( * ) SI_UNIT ( .MILLI., .METRE. ) );
#49 = CARTESIAN_POINT ( 'NONE',  ( 4.996003610813200500E-016, 2.442490654175340100E-015, -0.1554985346002140100 ) ) ;
#50 = ORIENTED_EDGE ( 'NONE', *, *, #39, .T. ) ;
#51 = CARTESIAN_POINT ( 'NONE',  ( -12.77749242632175500, -4.285000057869086600, -0.1042910283742868000 ) ) ;
#52 = ORGANIZATION ( 'UNSPECIFIED', 'UNSPECIFIED', '' ) ;
#53 = VERTEX_POINT ( 'NONE', #145 ) ;
#54 = APPLICATION_CONTEXT ( 'configuration controlled 3d designs of mechanical parts and assemblies' ) ;
#55 = AXIS2_PLACEMENT_3D ( 'NONE', #129, #143, #148 ) ;
#56 = CALENDAR_DATE ( 2019, 15, 1 ) ;
#57 = PRODUCT_DEFINITION ( 'UNKNOWN', '', #125, #174 ) ;
#58 = CC_DESIGN_APPROVAL ( #47, ( #125 ) ) ;
#59 = DATE_AND_TIME ( #113, #182 ) ;
#60 = EDGE_LOOP ( 'NONE', ( #40, #193 ) ) ;
#61 = CARTESIAN_POINT ( 'NONE',  ( -1.014205925935549800E-013, 4.285000057869046600, 0.05309510063438165800 ) ) ;
#62 = DATE_AND_TIME ( #33, #36 ) ;
#63 = CARTESIAN_POINT ( 'NONE',  ( 12.77749242632167700, -4.285000057869080300, -0.1042910283742925100 ) ) ;
#64 = CIRCLE ( 'NONE', #37, 12.69999999999999900 ) ;
#65 = CARTESIAN_POINT ( 'NONE',  ( -8.519082159448057500, -4.285000057869085700, 0.0006304046260902279400 ) ) ;
#66 = APPLICATION_CONTEXT ( 'configuration controlled 3d designs of mechanical parts and assemblies' ) ;
#67 = CC_DESIGN_PERSON_AND_ORGANIZATION_ASSIGNMENT ( #103, #176, ( #179 ) ) ;
#68 = CARTESIAN_POINT ( 'NONE',  ( -4.259702631419249200, -4.285000057869084800, 0.05309510063437528100 ) ) ;
#69 = DIRECTION ( 'NONE',  ( 1.000000000000000000, 0.0000000000000000000, -0.0000000000000000000 ) ) ;
#70 = APPLICATION_PROTOCOL_DEFINITION ( 'international standard', 'config_control_design', 1994, #54 ) ;
#71 = APPROVAL ( #122, 'UNSPECIFIED' ) ;
#72 = ORIENTED_EDGE ( 'NONE', *, *, #144, .T. ) ;
#73 = CC_DESIGN_PERSON_AND_ORGANIZATION_ASSIGNMENT ( #177, #120, ( #43 ) ) ;
#74 = LOCAL_TIME ( 13, 53, 50.00000000000000000, #21 ) ;
#75 =( GEOMETRIC_REPRESENTATION_CONTEXT ( 3 ) GLOBAL_UNCERTAINTY_ASSIGNED_CONTEXT ( ( #149 ) ) GLOBAL_UNIT_ASSIGNED_CONTEXT ( ( #48, #102, #85 ) ) REPRESENTATION_CONTEXT ( 'NONE', 'WORKASPACE' ) );
#76 = CIRCLE ( 'NONE', #231, 518.7000000000000500 ) ;
#77 = CC_DESIGN_SECURITY_CLASSIFICATION ( #179, ( #125 ) ) ;
#78 = LOCAL_TIME ( 13, 53, 50.00000000000000000, #166 ) ;
#79 = CARTESIAN_POINT ( 'NONE',  ( 12.77749242632167500, 4.285000057869049300, -0.1042910283742931000 ) ) ;
#80 = CARTESIAN_POINT ( 'NONE',  ( 4.257958953183964100, 12.85236898862610400, -0.1592526990957790500 ) ) ;
#81 = CARTESIAN_POINT ( 'NONE',  ( 4.259702631419005800, 4.285000057869047500, 0.05309510063438247600 ) ) ;
#82 = CC_DESIGN_APPROVAL ( #71, ( #57 ) ) ;
#83 = APPROVAL_PERSON_ORGANIZATION ( #158, #71, #17 ) ;
#84 = CARTESIAN_POINT ( 'NONE',  ( 8.519082159447895800, -4.285000057869081200, 0.0006304046260858641300 ) ) ;
#85 =( NAMED_UNIT ( * ) SI_UNIT ( $, .STERADIAN. ) SOLID_ANGLE_UNIT ( ) );
#86 = CARTESIAN_POINT ( 'NONE',  ( 0.0000000000000000000, 0.0000000000000000000, 0.0000000000000000000 ) ) ;
#87 = CARTESIAN_POINT ( 'NONE',  ( -8.515594935237997400, -12.85236898862614100, -0.2116959190630302600 ) ) ;
#88 = DIRECTION ( 'NONE',  ( 0.0000000000000000000, 0.0000000000000000000, 1.000000000000000000 ) ) ;
#89 = DATE_AND_TIME ( #146, #78 ) ;
#90 = ORIENTED_EDGE ( 'NONE', *, *, #104, .T. ) ;
#91 = APPROVAL_STATUS ( 'not_yet_approved' ) ;
#92 = VERTEX_POINT ( 'NONE', #112 ) ;
#93 = EDGE_CURVE ( 'NONE', #227, #92, #107, .T. ) ;
#94 = PERSON_AND_ORGANIZATION ( #5, #52 ) ;
#95 = ORIENTED_EDGE ( 'NONE', *, *, #39, .F. ) ;
#96 = AXIS2_PLACEMENT_3D ( 'NONE', #195, #116, #28 ) ;
#97 = EDGE_LOOP ( 'NONE', ( #140, #188, #90, #142, #208 ) ) ;
#98 = CARTESIAN_POINT ( 'NONE',  ( -1.032658951011143600E-013, 12.69999999999961700, -0.1554985346001938300 ) ) ;
#99 = LOCAL_TIME ( 13, 53, 50.00000000000000000, #124 ) ;
#100 = CARTESIAN_POINT ( 'NONE',  ( -4.257958953184215500, 12.85236898862610000, -0.1592526990957867600 ) ) ;
#101 = CARTESIAN_POINT ( 'NONE',  ( -2.307182223049153400E-013, 12.85236898862610000, -0.1592526990957849300 ) ) ;
#102 =( NAMED_UNIT ( * ) PLANE_ANGLE_UNIT ( ) SI_UNIT ( $, .RADIAN. ) );
#103 = PERSON_AND_ORGANIZATION ( #5, #52 ) ;
#104 = EDGE_CURVE ( 'NONE', #53, #223, #214, .T. ) ;
#105 = SECURITY_CLASSIFICATION_LEVEL ( 'unclassified' ) ;
#106 = FACE_OUTER_BOUND ( 'NONE', #60, .T. ) ;
#107 = CIRCLE ( 'NONE', #55, 12.69999999999999900 ) ;
#108 = ORIENTED_EDGE ( 'NONE', *, *, #135, .F. ) ;
#109 = CARTESIAN_POINT ( 'NONE',  ( 8.515594935237835700, 12.85236898862610400, -0.2116959190630345900 ) ) ;
#110 = LINE ( 'NONE', #8, #212 ) ;
#111 = CARTESIAN_POINT ( 'NONE',  ( 4.257958953183970300, -12.85236898862613800, -0.1592526990957790500 ) ) ;
#112 = CARTESIAN_POINT ( 'NONE',  ( -12.69999999999999900, 3.997792089092478900E-015, 3.799999999999999800 ) ) ;
#113 = CALENDAR_DATE ( 2019, 15, 1 ) ;
#114 = CC_DESIGN_PERSON_AND_ORGANIZATION_ASSIGNMENT ( #161, #232, ( #125 ) ) ;
#115 = CARTESIAN_POINT ( 'NONE',  ( -12.69999999999999900, 3.997792089092478900E-015, -0.1554985346002140100 ) ) ;
#116 = DIRECTION ( 'NONE',  ( 0.0000000000000000000, 0.0000000000000000000, 1.000000000000000000 ) ) ;
#117 = DATE_AND_TIME ( #157, #99 ) ;
#118 = SHAPE_DEFINITION_REPRESENTATION ( #41, #27 ) ;
#119 = DIRECTION ( 'NONE',  ( 1.000000000000000000, 0.0000000000000000000, 0.0000000000000000000 ) ) ;
#120 = PERSON_AND_ORGANIZATION_ROLE ( 'design_owner' ) ;
#121 = FACE_OUTER_BOUND ( 'NONE', #180, .T. ) ;
#122 = APPROVAL_STATUS ( 'not_yet_approved' ) ;
#123 = APPROVAL_PERSON_ORGANIZATION ( #221, #47, #199 ) ;
#124 = COORDINATED_UNIVERSAL_TIME_OFFSET ( 2, 0, .AHEAD. ) ;
#125 = PRODUCT_DEFINITION_FORMATION_WITH_SPECIFIED_SOURCE ( 'ANY', '', #43, .NOT_KNOWN. ) ;
#126 = DIRECTION ( 'NONE',  ( 0.0000000000000000000, 0.0000000000000000000, 1.000000000000000000 ) ) ;
#127 = CARTESIAN_POINT ( 'NONE',  ( 0.0000000000000000000, 0.0000000000000000000, -518.7000000000000500 ) ) ;
#128 = CARTESIAN_POINT ( 'NONE',  ( 4.259702631419007600, -4.285000057869082100, 0.05309510063438307300 ) ) ;
#129 = CARTESIAN_POINT ( 'NONE',  ( 4.996003610813200500E-016, 2.442490654175340100E-015, 3.799999999999999800 ) ) ;
#130 = ORIENTED_EDGE ( 'NONE', *, *, #164, .F. ) ;
#131 = DIRECTION ( 'NONE',  ( -0.0000000000000000000, -0.0000000000000000000, -1.000000000000000000 ) ) ;
#132 = CARTESIAN_POINT ( 'NONE',  ( -4.257958953184208400, -12.85236898862614100, -0.1592526990957868200 ) ) ;
#133 = MECHANICAL_CONTEXT ( 'NONE', #66, 'mechanical' ) ;
#134 = ORIENTED_EDGE ( 'NONE', *, *, #191, .T. ) ;
#135 = EDGE_CURVE ( 'NONE', #137, #53, #76, .T. ) ;
#136 = CARTESIAN_POINT ( 'NONE',  ( 12.69999999999999900, 2.442490654175340100E-015, 3.799999999999999800 ) ) ;
#137 = VERTEX_POINT ( 'NONE', #98 ) ;
#138 = PERSON_AND_ORGANIZATION_ROLE ( 'creator' ) ;
#139 = AXIS2_PLACEMENT_3D ( 'NONE', #211, #131, #119 ) ;
#140 = ORIENTED_EDGE ( 'NONE', *, *, #160, .F. ) ;
#141 = CIRCLE ( 'NONE', #139, 12.69999999999999900 ) ;
#142 = ORIENTED_EDGE ( 'NONE', *, *, #164, .T. ) ;
#143 = DIRECTION ( 'NONE',  ( -0.0000000000000000000, -0.0000000000000000000, -1.000000000000000000 ) ) ;
#144 = EDGE_CURVE ( 'NONE', #223, #137, #24, .T. ) ;
#145 = CARTESIAN_POINT ( 'NONE',  ( -9.757406683744818100E-014, -12.69999999999961600, -0.1554985346001938300 ) ) ;
#146 = CALENDAR_DATE ( 2019, 15, 1 ) ;
#147 = DIRECTION ( 'NONE',  ( 1.000000000000000000, 0.0000000000000000000, 0.0000000000000000000 ) ) ;
#148 = DIRECTION ( 'NONE',  ( 1.000000000000000000, 0.0000000000000000000, 0.0000000000000000000 ) ) ;
#149 = UNCERTAINTY_MEASURE_WITH_UNIT (LENGTH_MEASURE( 1.000000000000000100E-005 ), #48, 'distance_accuracy_value', 'NONE');
#150 = CARTESIAN_POINT ( 'NONE',  ( -12.77749242632175900, 4.285000057869043000, -0.1042910283742874300 ) ) ;
#151 = PLANE ( 'NONE',  #156 ) ;
#152 = DIRECTION ( 'NONE',  ( 1.000000000000000000, 0.0000000000000000000, 0.0000000000000000000 ) ) ;
#153 = CYLINDRICAL_SURFACE ( 'NONE', #172, 12.69999999999999900 ) ;
#154 = APPROVAL_ROLE ( '' ) ;
#155 = EDGE_LOOP ( 'NONE', ( #108, #183, #168 ) ) ;
#156 = AXIS2_PLACEMENT_3D ( 'NONE', #230, #224, #69 ) ;
#157 = CALENDAR_DATE ( 2019, 15, 1 ) ;
#158 = PERSON_AND_ORGANIZATION ( #5, #52 ) ;
#159 = CYLINDRICAL_SURFACE ( 'NONE', #96, 12.69999999999999900 ) ;
#160 = EDGE_CURVE ( 'NONE', #202, #92, #207, .T. ) ;
#161 = PERSON_AND_ORGANIZATION ( #5, #52 ) ;
#162 = CARTESIAN_POINT ( 'NONE',  ( 4.996003610813200500E-016, 2.442490654175340100E-015, -0.1554985346002140100 ) ) ;
#163 = CARTESIAN_POINT ( 'NONE',  ( -9.950016074794936900E-014, -4.285000057869083000, 0.05309510063438225400 ) ) ;
#164 = EDGE_CURVE ( 'NONE', #223, #227, #110, .T. ) ;
#165 = DIRECTION ( 'NONE',  ( 0.0000000000000000000, 0.0000000000000000000, 1.000000000000000000 ) ) ;
#166 = COORDINATED_UNIVERSAL_TIME_OFFSET ( 2, 0, .AHEAD. ) ;
#167 = DIRECTION ( 'NONE',  ( -2.240877269159981100E-016, 1.000000000000000000, 4.280790532582056900E-016 ) ) ;
#168 = ORIENTED_EDGE ( 'NONE', *, *, #104, .F. ) ;
#169 = CARTESIAN_POINT ( 'NONE',  ( -4.259702631419252800, 4.285000057869044800, 0.05309510063437474600 ) ) ;
#170 = CARTESIAN_POINT ( 'NONE',  ( -8.519082159448061000, 4.285000057869043900, 0.0006304046260896046300 ) ) ;
#171 = PERSON_AND_ORGANIZATION ( #5, #52 ) ;
#172 = AXIS2_PLACEMENT_3D ( 'NONE', #49, #88, #152 ) ;
#173 = CARTESIAN_POINT ( 'NONE',  ( -8.515594935238004500, 12.85236898862610000, -0.2116959190630302600 ) ) ;
#174 = DESIGN_CONTEXT ( 'detailed design', #54, 'design' ) ;
#175 = DIRECTION ( 'NONE',  ( 1.000000000000000000, 0.0000000000000000000, 0.0000000000000000000 ) ) ;
#176 = PERSON_AND_ORGANIZATION_ROLE ( 'classification_officer' ) ;
#177 = PERSON_AND_ORGANIZATION ( #5, #52 ) ;
#178 = DATE_TIME_ROLE ( 'creation_date' ) ;
#179 = SECURITY_CLASSIFICATION ( '', '', #105 ) ;
#180 = EDGE_LOOP ( 'NONE', ( #95, #16, #23 ) ) ;
#181 = EDGE_CURVE ( 'NONE', #202, #53, #64, .T. ) ;
#182 = LOCAL_TIME ( 13, 53, 50.00000000000000000, #44 ) ;
#183 = ORIENTED_EDGE ( 'NONE', *, *, #144, .F. ) ;
#184 = CARTESIAN_POINT ( 'NONE',  ( 12.77226205289658800, -12.85236898862613400, -0.3165744032392949800 ) ) ;
#185 = DIRECTION ( 'NONE',  ( 0.0000000000000000000, 0.0000000000000000000, 1.000000000000000000 ) ) ;
#186 = DIRECTION ( 'NONE',  ( 0.0000000000000000000, 0.0000000000000000000, 1.000000000000000000 ) ) ;
#187 = EDGE_LOOP ( 'NONE', ( #72, #50, #234, #134, #130 ) ) ;
#188 = ORIENTED_EDGE ( 'NONE', *, *, #181, .T. ) ;
#189 = CARTESIAN_POINT ( 'NONE',  ( 12.77226205289658100, 12.85236898862610400, -0.3165744032392949800 ) ) ;
#190 = CARTESIAN_POINT ( 'NONE',  ( -1.032993120996852900E-013, 12.85236898862610000, -0.1592526990957798800 ) ) ;
#191 = EDGE_CURVE ( 'NONE', #92, #227, #141, .T. ) ;
#192 = CARTESIAN_POINT ( 'NONE',  ( -2.255140518769850000E-013, -4.285000057869083900, 0.05309510063437713300 ) ) ;
#193 = ORIENTED_EDGE ( 'NONE', *, *, #191, .F. ) ;
#194 = CARTESIAN_POINT ( 'NONE',  ( 12.69999999999999900, 2.442490654175340100E-015, -0.1554985346002140100 ) ) ;
#195 = CARTESIAN_POINT ( 'NONE',  ( 4.996003610813200500E-016, 2.442490654175340100E-015, -0.1554985346002140100 ) ) ;
#196 = CIRCLE ( 'NONE', #197, 12.69999999999999900 ) ;
#197 = AXIS2_PLACEMENT_3D ( 'NONE', #45, #126, #3 ) ;
#198 =( BOUNDED_SURFACE ( )  B_SPLINE_SURFACE ( 3, 3, ( 
 ( #190, #80, #109, #189 ),
 ( #61, #81, #42, #79 ),
 ( #163, #128, #84, #63 ),
 ( #206, #111, #6, #184 ) ),
 .UNSPECIFIED., .F., .F., .F. ) 
 B_SPLINE_SURFACE_WITH_KNOTS ( ( 4, 4 ),
 ( 4, 4 ),
 ( 0.0000000000000000000, 1.000000000000000000 ),
 ( 0.0000000000000000000, 1.000000000000000000 ),
 .UNSPECIFIED. ) 
 GEOMETRIC_REPRESENTATION_ITEM ( )  RATIONAL_B_SPLINE_SURFACE ( (
 ( 1.000000000000000000, 0.9999494325593164500, 0.9999494325593164500, 1.000000000000000000),
 ( 0.9997953181683749700, 0.9997447610779277600, 0.9997447610779277600, 0.9997953181683749700),
 ( 0.9997953181683749700, 0.9997447610779277600, 0.9997447610779277600, 0.9997953181683749700),
 ( 1.000000000000000000, 0.9999494325593164500, 0.9999494325593164500, 1.000000000000000000) ) ) 
 REPRESENTATION_ITEM ( '' )  SURFACE ( )  );
#199 = APPROVAL_ROLE ( '' ) ;
#200 = ADVANCED_FACE ( 'NONE', ( #106 ), #151, .T. ) ;
#201 = APPROVAL_DATE_TIME ( #59, #71 ) ;
#202 = VERTEX_POINT ( 'NONE', #115 ) ;
#203 = MANIFOLD_SOLID_BREP ( 'Imported1', #34 ) ;
#204 = FACE_OUTER_BOUND ( 'NONE', #97, .T. ) ;
#205 = DIRECTION ( 'NONE',  ( 1.000000000000000000, 0.0000000000000000000, 0.0000000000000000000 ) ) ;
#206 = CARTESIAN_POINT ( 'NONE',  ( -9.753919579539151900E-014, -12.85236898862613800, -0.1592526990957798800 ) ) ;
#207 = LINE ( 'NONE', #26, #15 ) ;
#208 = ORIENTED_EDGE ( 'NONE', *, *, #93, .T. ) ;
#209 = DIRECTION ( 'NONE',  ( 0.0000000000000000000, 0.0000000000000000000, 1.000000000000000000 ) ) ;
#210 = APPROVAL_DATE_TIME ( #117, #225 ) ;
#211 = CARTESIAN_POINT ( 'NONE',  ( 4.996003610813200500E-016, 2.442490654175340100E-015, 3.799999999999999800 ) ) ;
#212 = VECTOR ( 'NONE', #228, 1000.000000000000000 ) ;
#213 = ADVANCED_FACE ( 'NONE', ( #204 ), #159, .T. ) ;
#214 = CIRCLE ( 'NONE', #219, 12.69999999999999900 ) ;
#215 = CC_DESIGN_DATE_AND_TIME_ASSIGNMENT ( #4, #233, ( #179 ) ) ;
#216 = PERSON_AND_ORGANIZATION ( #5, #52 ) ;
#217 = PRODUCT_RELATED_PRODUCT_CATEGORY ( 'detail', '', ( #43 ) ) ;
#218 = ADVANCED_FACE ( 'NONE', ( #38 ), #153, .T. ) ;
#219 = AXIS2_PLACEMENT_3D ( 'NONE', #25, #165, #147 ) ;
#220 = COORDINATED_UNIVERSAL_TIME_OFFSET ( 2, 0, .AHEAD. ) ;
#221 = PERSON_AND_ORGANIZATION ( #5, #52 ) ;
#222 = APPROVAL_PERSON_ORGANIZATION ( #94, #225, #154 ) ;
#223 = VERTEX_POINT ( 'NONE', #194 ) ;
#224 = DIRECTION ( 'NONE',  ( 0.0000000000000000000, 0.0000000000000000000, 1.000000000000000000 ) ) ;
#225 = APPROVAL ( #91, 'UNSPECIFIED' ) ;
#226 = DIRECTION ( 'NONE',  ( 1.000000000000000000, 0.0000000000000000000, 0.0000000000000000000 ) ) ;
#227 = VERTEX_POINT ( 'NONE', #136 ) ;
#228 = DIRECTION ( 'NONE',  ( 0.0000000000000000000, 0.0000000000000000000, 1.000000000000000000 ) ) ;
#229 = DIRECTION ( 'NONE',  ( 0.0000000000000000000, 0.0000000000000000000, 1.000000000000000000 ) ) ;
#230 = CARTESIAN_POINT ( 'NONE',  ( 0.0000000000000000000, 26.11199999999999800, 3.799999999999999800 ) ) ;
#231 = AXIS2_PLACEMENT_3D ( 'NONE', #127, #46, #167 ) ;
#232 = PERSON_AND_ORGANIZATION_ROLE ( 'design_supplier' ) ;
#233 = DATE_TIME_ROLE ( 'classification_date' ) ;
#234 = ORIENTED_EDGE ( 'NONE', *, *, #160, .T. ) ;
#235 = ADVANCED_FACE ( 'NONE', ( #121 ), #9, .F. ) ;
ENDSEC;
END-ISO-10303-21;
