ISO-10303-21;
HEADER;
FILE_DESCRIPTION (( 'STEP AP203' ),
    '1' );
FILE_NAME ('112-0252E BK7 pl-cv 25.4 F-750.STEP',
    '2019-01-15T11:36:49',
    ( '' ),
    ( '' ),
    'SwSTEP 2.0',
    'SolidWorks 2017',
    '' );
FILE_SCHEMA (( 'CONFIG_CONTROL_DESIGN' ));
ENDSEC;

DATA;
#1 = CC_DESIGN_PERSON_AND_ORGANIZATION_ASSIGNMENT ( #179, #48, ( #59 ) ) ;
#2 = CALENDAR_DATE ( 2019, 15, 1 ) ;
#3 = CIRCLE ( 'NONE', #77, 12.69999999999999900 ) ;
#4 = ORIENTED_EDGE ( 'NONE', *, *, #232, .T. ) ;
#5 = PRODUCT_DEFINITION ( 'UNKNOWN', '', #219, #60 ) ;
#6 = CARTESIAN_POINT ( 'NONE',  ( 12.69999999999999900, 2.442490654175340100E-015, -0.2073688969916220000 ) ) ;
#7 = CARTESIAN_POINT ( 'NONE',  ( -8.514138139587588600, -12.85234485132133600, -0.2822981065569453700 ) ) ;
#8 = VECTOR ( 'NONE', #209, 1000.000000000000000 ) ;
#9 = CARTESIAN_POINT ( 'NONE',  ( -12.76919749949530900, 12.85234485132140000, -0.4221251447252272200 ) ) ;
#10 = FACE_OUTER_BOUND ( 'NONE', #57, .T. ) ;
#11 = VERTEX_POINT ( 'NONE', #173 ) ;
#12 = APPROVAL_ROLE ( '' ) ;
#13 = DIRECTION ( 'NONE',  ( 1.000000000000000000, 0.0000000000000000000, 0.0000000000000000000 ) ) ;
#14 = APPLICATION_CONTEXT ( 'configuration controlled 3d designs of mechanical parts and assemblies' ) ;
#15 =( LENGTH_UNIT ( ) NAMED_UNIT ( * ) SI_UNIT ( .MILLI., .METRE. ) );
#16 = VECTOR ( 'NONE', #119, 1000.000000000000000 ) ;
#17 = EDGE_CURVE ( 'NONE', #81, #167, #63, .T. ) ;
#18 = DIRECTION ( 'NONE',  ( 0.0000000000000000000, 0.0000000000000000000, 1.000000000000000000 ) ) ;
#19 = CARTESIAN_POINT ( 'NONE',  ( 12.77849857454708800, -4.285674797662039700, -0.1390852765036986500 ) ) ;
#20 = ORIENTED_EDGE ( 'NONE', *, *, #158, .T. ) ;
#21 = DIRECTION ( 'NONE',  ( 0.0000000000000000000, 0.0000000000000000000, 1.000000000000000000 ) ) ;
#22 = CC_DESIGN_PERSON_AND_ORGANIZATION_ASSIGNMENT ( #133, #139, ( #219 ) ) ;
#23 = PERSON ( 'UNSPECIFIED', 'UNSPECIFIED', 'UNSPECIFIED', ('UNSPECIFIED'), ('UNSPECIFIED'), ('UNSPECIFIED') ) ;
#24 = MANIFOLD_SOLID_BREP ( 'Imported1', #213 ) ;
#25 = FACE_OUTER_BOUND ( 'NONE', #206, .T. ) ;
#26 = ORIENTED_EDGE ( 'NONE', *, *, #152, .T. ) ;
#27 = CARTESIAN_POINT ( 'NONE',  ( -8.520339832203113400, 4.285674797662094800, 0.0008436115870848408900 ) ) ;
#28 = CARTESIAN_POINT ( 'NONE',  ( 1.196959198423996600E-013, -4.285674797662036200, 0.07081749395433996300 ) ) ;
#29 = EDGE_CURVE ( 'NONE', #11, #217, #71, .T. ) ;
#30 = PERSON_AND_ORGANIZATION_ROLE ( 'creator' ) ;
#31 = FACE_OUTER_BOUND ( 'NONE', #123, .T. ) ;
#32 = ADVANCED_FACE ( 'NONE', ( #204 ), #134, .T. ) ;
#33 = DIRECTION ( 'NONE',  ( 1.000000000000000000, 0.0000000000000000000, 0.0000000000000000000 ) ) ;
#34 = APPROVAL ( #105, 'UNSPECIFIED' ) ;
#35 = CIRCLE ( 'NONE', #99, 389.0000000000000000 ) ;
#36 = ORIENTED_EDGE ( 'NONE', *, *, #95, .T. ) ;
#37 = PERSON_AND_ORGANIZATION_ROLE ( 'design_owner' ) ;
#38 = DIRECTION ( 'NONE',  ( 1.000000000000000000, -2.988028379211529900E-016, -2.582264637827899900E-016 ) ) ;
#39 = CIRCLE ( 'NONE', #86, 12.69999999999999900 ) ;
#40 = DIRECTION ( 'NONE',  ( 0.0000000000000000000, 0.0000000000000000000, 1.000000000000000000 ) ) ;
#41 = CARTESIAN_POINT ( 'NONE',  ( 4.996003610813200500E-016, 2.442490654175340100E-015, -0.2073688969916220000 ) ) ;
#42 = CALENDAR_DATE ( 2019, 15, 1 ) ;
#43 = COORDINATED_UNIVERSAL_TIME_OFFSET ( 2, 0, .AHEAD. ) ;
#44 = ORIENTED_EDGE ( 'NONE', *, *, #170, .T. ) ;
#45 = CC_DESIGN_PERSON_AND_ORGANIZATION_ASSIGNMENT ( #147, #90, ( #219 ) ) ;
#46 = CARTESIAN_POINT ( 'NONE',  ( 4.996003610813200500E-016, 2.442490654175340100E-015, 3.800000000000000300 ) ) ;
#47 = ORGANIZATION ( 'UNSPECIFIED', 'UNSPECIFIED', '' ) ;
#48 = PERSON_AND_ORGANIZATION_ROLE ( 'classification_officer' ) ;
#49 = PERSON_AND_ORGANIZATION ( #23, #47 ) ;
#50 = DIRECTION ( 'NONE',  ( 0.0000000000000000000, 0.0000000000000000000, 1.000000000000000000 ) ) ;
#51 = DIRECTION ( 'NONE',  ( 2.988028379211528500E-016, 1.000000000000000000, -5.708087530206460600E-016 ) ) ;
#52 = CC_DESIGN_SECURITY_CLASSIFICATION ( #59, ( #219 ) ) ;
#53 = LOCAL_TIME ( 13, 36, 49.00000000000000000, #120 ) ;
#54 = CARTESIAN_POINT ( 'NONE',  ( 4.257356193336624600, 12.85234485132139400, -0.2123751560207953700 ) ) ;
#55 =( NAMED_UNIT ( * ) SI_UNIT ( $, .STERADIAN. ) SOLID_ANGLE_UNIT ( ) );
#56 = DATE_AND_TIME ( #42, #140 ) ;
#57 = EDGE_LOOP ( 'NONE', ( #66, #161, #112 ) ) ;
#58 = DIRECTION ( 'NONE',  ( 1.000000000000000000, 0.0000000000000000000, 0.0000000000000000000 ) ) ;
#59 = SECURITY_CLASSIFICATION ( '', '', #137 ) ;
#60 = DESIGN_CONTEXT ( 'detailed design', #14, 'design' ) ;
#61 = ORIENTED_EDGE ( 'NONE', *, *, #143, .F. ) ;
#62 = AXIS2_PLACEMENT_3D ( 'NONE', #178, #18, #33 ) ;
#63 = LINE ( 'NONE', #6, #16 ) ;
#64 = APPROVAL ( #210, 'UNSPECIFIED' ) ;
#65 =( BOUNDED_SURFACE ( )  B_SPLINE_SURFACE ( 3, 3, ( 
 ( #218, #54, #110, #68 ),
 ( #231, #157, #73, #233 ),
 ( #127, #199, #194, #19 ),
 ( #166, #92, #182, #128 ) ),
 .UNSPECIFIED., .F., .F., .F. ) 
 B_SPLINE_SURFACE_WITH_KNOTS ( ( 4, 4 ),
 ( 4, 4 ),
 ( 0.0000000000000000000, 1.000000000000000000 ),
 ( 0.0000000000000000000, 1.000000000000000000 ),
 .UNSPECIFIED. ) 
 GEOMETRIC_REPRESENTATION_ITEM ( )  RATIONAL_B_SPLINE_SURFACE ( (
 ( 1.000000000000000000, 0.9999100776695896100, 0.9999100776695896100, 1.000000000000000000),
 ( 0.9996360322947373000, 0.9995461426931511200, 0.9995461426931511200, 0.9996360322947373000),
 ( 0.9996360322947373000, 0.9995461426931511200, 0.9995461426931511200, 0.9996360322947373000),
 ( 1.000000000000000000, 0.9999100776695896100, 0.9999100776695896100, 1.000000000000000000) ) ) 
 REPRESENTATION_ITEM ( '' )  SURFACE ( )  );
#66 = ORIENTED_EDGE ( 'NONE', *, *, #232, .F. ) ;
#67 = CARTESIAN_POINT ( 'NONE',  ( -8.514138139587581500, 12.85234485132139600, -0.2822981065569453200 ) ) ;
#68 = CARTESIAN_POINT ( 'NONE',  ( 12.76919749949515600, 12.85234485132139200, -0.4221251447251820300 ) ) ;
#69 = AXIS2_PLACEMENT_3D ( 'NONE', #76, #229, #124 ) ;
#70 = APPLICATION_PROTOCOL_DEFINITION ( 'international standard', 'config_control_design', 1994, #108 ) ;
#71 = LINE ( 'NONE', #191, #8 ) ;
#72 = AXIS2_PLACEMENT_3D ( 'NONE', #78, #40, #13 ) ;
#73 = CARTESIAN_POINT ( 'NONE',  ( 8.520339832203122300, 4.285674797662090400, 0.0008436115871203758300 ) ) ;
#74 = CALENDAR_DATE ( 2019, 15, 1 ) ;
#75 = CARTESIAN_POINT ( 'NONE',  ( 2.178781800377516300E-013, 12.70000000000125700, -0.2073688969916553700 ) ) ;
#76 = CARTESIAN_POINT ( 'NONE',  ( 0.0000000000000000000, 0.0000000000000000000, 0.0000000000000000000 ) ) ;
#77 = AXIS2_PLACEMENT_3D ( 'NONE', #113, #177, #215 ) ;
#78 = CARTESIAN_POINT ( 'NONE',  ( 4.996003610813200500E-016, 2.442490654175340100E-015, -0.2073688969916220000 ) ) ;
#79 =( BOUNDED_SURFACE ( )  B_SPLINE_SURFACE ( 3, 3, ( 
 ( #9, #67, #103, #91 ),
 ( #214, #27, #188, #150 ),
 ( #208, #85, #118, #28 ),
 ( #207, #7, #153, #104 ) ),
 .UNSPECIFIED., .F., .F., .F. ) 
 B_SPLINE_SURFACE_WITH_KNOTS ( ( 4, 4 ),
 ( 4, 4 ),
 ( 0.0000000000000000000, 1.000000000000000000 ),
 ( 0.0000000000000000000, 1.000000000000000000 ),
 .UNSPECIFIED. ) 
 GEOMETRIC_REPRESENTATION_ITEM ( )  RATIONAL_B_SPLINE_SURFACE ( (
 ( 1.000000000000000000, 0.9999100776695893900, 0.9999100776695893900, 1.000000000000000000),
 ( 0.9996360322947373000, 0.9995461426931509000, 0.9995461426931509000, 0.9996360322947373000),
 ( 0.9996360322947373000, 0.9995461426931509000, 0.9995461426931509000, 0.9996360322947373000),
 ( 1.000000000000000000, 0.9999100776695893900, 0.9999100776695893900, 1.000000000000000000) ) ) 
 REPRESENTATION_ITEM ( '' )  SURFACE ( )  );
#80 = CIRCLE ( 'NONE', #62, 12.69999999999999900 ) ;
#81 = VERTEX_POINT ( 'NONE', #192 ) ;
#82 = COORDINATED_UNIVERSAL_TIME_OFFSET ( 2, 0, .AHEAD. ) ;
#83 = ORIENTED_EDGE ( 'NONE', *, *, #29, .F. ) ;
#84 = CC_DESIGN_PERSON_AND_ORGANIZATION_ASSIGNMENT ( #117, #37, ( #203 ) ) ;
#85 = CARTESIAN_POINT ( 'NONE',  ( -8.520339832203117000, -4.285674797662032600, 0.0008436115870835400600 ) ) ;
#86 = AXIS2_PLACEMENT_3D ( 'NONE', #98, #225, #58 ) ;
#87 = APPLICATION_PROTOCOL_DEFINITION ( 'international standard', 'config_control_design', 1994, #14 ) ;
#88 = PERSON_AND_ORGANIZATION ( #23, #47 ) ;
#89 = CARTESIAN_POINT ( 'NONE',  ( 0.0000000000000000000, 26.11199999999999800, 3.799999999999999800 ) ) ;
#90 = PERSON_AND_ORGANIZATION_ROLE ( 'design_supplier' ) ;
#91 = CARTESIAN_POINT ( 'NONE',  ( 1.231653667943533000E-013, 12.85234485132139600, -0.2123751560208251000 ) ) ;
#92 = CARTESIAN_POINT ( 'NONE',  ( 4.257356193336616600, -12.85234485132133900, -0.2123751560207953700 ) ) ;
#93 = CALENDAR_DATE ( 2019, 15, 1 ) ;
#94 = ORIENTED_EDGE ( 'NONE', *, *, #17, .T. ) ;
#95 = EDGE_CURVE ( 'NONE', #167, #217, #230, .T. ) ;
#96 = MECHANICAL_CONTEXT ( 'NONE', #108, 'mechanical' ) ;
#97 = DATE_AND_TIME ( #93, #111 ) ;
#98 = CARTESIAN_POINT ( 'NONE',  ( 4.996003610813200500E-016, 2.442490654175340100E-015, -0.2073688969916220000 ) ) ;
#99 = AXIS2_PLACEMENT_3D ( 'NONE', #142, #38, #51 ) ;
#100 = CYLINDRICAL_SURFACE ( 'NONE', #132, 12.69999999999999900 ) ;
#101 = PERSON_AND_ORGANIZATION ( #23, #47 ) ;
#102 = ORIENTED_EDGE ( 'NONE', *, *, #158, .F. ) ;
#103 = CARTESIAN_POINT ( 'NONE',  ( -4.257356193336448800, 12.85234485132139600, -0.2123751560208250700 ) ) ;
#104 = CARTESIAN_POINT ( 'NONE',  ( 1.162264728904460800E-013, -12.85234485132133700, -0.2123751560208251000 ) ) ;
#105 = APPROVAL_STATUS ( 'not_yet_approved' ) ;
#106 = DIRECTION ( 'NONE',  ( 1.000000000000000000, 0.0000000000000000000, -0.0000000000000000000 ) ) ;
#107 = ADVANCED_FACE ( 'NONE', ( #31 ), #79, .F. ) ;
#108 = APPLICATION_CONTEXT ( 'configuration controlled 3d designs of mechanical parts and assemblies' ) ;
#109 = CC_DESIGN_APPROVAL ( #228, ( #219 ) ) ;
#110 = CARTESIAN_POINT ( 'NONE',  ( 8.514138139587595700, 12.85234485132139400, -0.2822981065569098400 ) ) ;
#111 = LOCAL_TIME ( 13, 36, 49.00000000000000000, #186 ) ;
#112 = ORIENTED_EDGE ( 'NONE', *, *, #129, .F. ) ;
#113 = CARTESIAN_POINT ( 'NONE',  ( 4.996003610813200500E-016, 2.442490654175340100E-015, 3.800000000000000300 ) ) ;
#114 = ADVANCED_BREP_SHAPE_REPRESENTATION ( '112-0252E BK7 pl-cv 25.4 F-750', ( #24, #69 ), #168 ) ;
#115 = EDGE_LOOP ( 'NONE', ( #193, #102 ) ) ;
#116 = AXIS2_PLACEMENT_3D ( 'NONE', #46, #135, #172 ) ;
#117 = PERSON_AND_ORGANIZATION ( #23, #47 ) ;
#118 = CARTESIAN_POINT ( 'NONE',  ( -4.260457248784817400, -4.285674797662035300, 0.07081749395434006100 ) ) ;
#119 = DIRECTION ( 'NONE',  ( 0.0000000000000000000, 0.0000000000000000000, 1.000000000000000000 ) ) ;
#120 = COORDINATED_UNIVERSAL_TIME_OFFSET ( 2, 0, .AHEAD. ) ;
#121 = CARTESIAN_POINT ( 'NONE',  ( -12.69999999999999900, 3.997792089092478900E-015, 3.800000000000000300 ) ) ;
#122 = LOCAL_TIME ( 13, 36, 49.00000000000000000, #171 ) ;
#123 = EDGE_LOOP ( 'NONE', ( #61, #4, #202 ) ) ;
#124 = DIRECTION ( 'NONE',  ( 1.000000000000000000, 0.0000000000000000000, 0.0000000000000000000 ) ) ;
#125 = CALENDAR_DATE ( 2019, 15, 1 ) ;
#126 = CARTESIAN_POINT ( 'NONE',  ( 2.102885879545535900E-013, -12.70000000000125500, -0.2073688969916553700 ) ) ;
#127 = CARTESIAN_POINT ( 'NONE',  ( 2.128746472922105200E-013, -4.285674797662035300, 0.07081749395437088300 ) ) ;
#128 = CARTESIAN_POINT ( 'NONE',  ( 12.76919749949514800, -12.85234485132134100, -0.4221251447251819800 ) ) ;
#129 = EDGE_CURVE ( 'NONE', #180, #81, #80, .T. ) ;
#130 = FACE_OUTER_BOUND ( 'NONE', #223, .T. ) ;
#131 = CC_DESIGN_DATE_AND_TIME_ASSIGNMENT ( #163, #154, ( #59 ) ) ;
#132 = AXIS2_PLACEMENT_3D ( 'NONE', #41, #50, #159 ) ;
#133 = PERSON_AND_ORGANIZATION ( #23, #47 ) ;
#134 = PLANE ( 'NONE',  #175 ) ;
#135 = DIRECTION ( 'NONE',  ( -0.0000000000000000000, -0.0000000000000000000, -1.000000000000000000 ) ) ;
#136 = PERSON_AND_ORGANIZATION ( #23, #47 ) ;
#137 = SECURITY_CLASSIFICATION_LEVEL ( 'unclassified' ) ;
#138 = APPROVAL_ROLE ( '' ) ;
#139 = PERSON_AND_ORGANIZATION_ROLE ( 'creator' ) ;
#140 = LOCAL_TIME ( 13, 36, 49.00000000000000000, #82 ) ;
#141 = UNCERTAINTY_MEASURE_WITH_UNIT (LENGTH_MEASURE( 1.000000000000000100E-005 ), #15, 'distance_accuracy_value', 'NONE');
#142 = CARTESIAN_POINT ( 'NONE',  ( 1.136868377216160000E-013, 0.0000000000000000000, -389.0000000000000000 ) ) ;
#143 = EDGE_CURVE ( 'NONE', #164, #11, #39, .T. ) ;
#144 = CIRCLE ( 'NONE', #200, 12.69999999999999900 ) ;
#145 = CARTESIAN_POINT ( 'NONE',  ( 4.996003610813200500E-016, 2.442490654175340100E-015, -0.2073688969916220000 ) ) ;
#146 = PRODUCT_RELATED_PRODUCT_CATEGORY ( 'detail', '', ( #203 ) ) ;
#147 = PERSON_AND_ORGANIZATION ( #23, #47 ) ;
#148 = DIRECTION ( 'NONE',  ( 1.000000000000000000, 0.0000000000000000000, 0.0000000000000000000 ) ) ;
#149 = CC_DESIGN_APPROVAL ( #64, ( #59 ) ) ;
#150 = CARTESIAN_POINT ( 'NONE',  ( 1.214306433183765000E-013, 4.285674797662091300, 0.07081749395434132300 ) ) ;
#151 = APPROVAL_DATE_TIME ( #189, #64 ) ;
#152 = EDGE_CURVE ( 'NONE', #11, #180, #184, .T. ) ;
#153 = CARTESIAN_POINT ( 'NONE',  ( -4.257356193336455900, -12.85234485132133600, -0.2123751560208250500 ) ) ;
#154 = DATE_TIME_ROLE ( 'classification_date' ) ;
#155 = ADVANCED_FACE ( 'NONE', ( #10 ), #65, .F. ) ;
#156 = APPROVAL_PERSON_ORGANIZATION ( #136, #34, #196 ) ;
#157 = CARTESIAN_POINT ( 'NONE',  ( 4.260457248784986100, 4.285674797662091300, 0.07081749395437102200 ) ) ;
#158 = EDGE_CURVE ( 'NONE', #217, #167, #3, .T. ) ;
#159 = DIRECTION ( 'NONE',  ( 1.000000000000000000, 0.0000000000000000000, 0.0000000000000000000 ) ) ;
#160 =( NAMED_UNIT ( * ) PLANE_ANGLE_UNIT ( ) SI_UNIT ( $, .RADIAN. ) );
#161 = ORIENTED_EDGE ( 'NONE', *, *, #170, .F. ) ;
#162 = DIRECTION ( 'NONE',  ( 0.0000000000000000000, 0.0000000000000000000, 1.000000000000000000 ) ) ;
#163 = DATE_AND_TIME ( #125, #122 ) ;
#164 = VERTEX_POINT ( 'NONE', #75 ) ;
#165 = DIRECTION ( 'NONE',  ( 1.000000000000000000, 0.0000000000000000000, 0.0000000000000000000 ) ) ;
#166 = CARTESIAN_POINT ( 'NONE',  ( 2.102417741320706100E-013, -12.85234485132133700, -0.2123751560207942600 ) ) ;
#167 = VERTEX_POINT ( 'NONE', #201 ) ;
#168 =( GEOMETRIC_REPRESENTATION_CONTEXT ( 3 ) GLOBAL_UNCERTAINTY_ASSIGNED_CONTEXT ( ( #141 ) ) GLOBAL_UNIT_ASSIGNED_CONTEXT ( ( #15, #160, #55 ) ) REPRESENTATION_CONTEXT ( 'NONE', 'WORKASPACE' ) );
#169 = SHAPE_DEFINITION_REPRESENTATION ( #216, #114 ) ;
#170 = EDGE_CURVE ( 'NONE', #81, #164, #144, .T. ) ;
#171 = COORDINATED_UNIVERSAL_TIME_OFFSET ( 2, 0, .AHEAD. ) ;
#172 = DIRECTION ( 'NONE',  ( 1.000000000000000000, 0.0000000000000000000, 0.0000000000000000000 ) ) ;
#173 = CARTESIAN_POINT ( 'NONE',  ( -12.69999999999999900, 3.997792089092478900E-015, -0.2073688969916220000 ) ) ;
#174 = APPROVAL_DATE_TIME ( #212, #228 ) ;
#175 = AXIS2_PLACEMENT_3D ( 'NONE', #89, #211, #106 ) ;
#176 = ADVANCED_FACE ( 'NONE', ( #130 ), #100, .T. ) ;
#177 = DIRECTION ( 'NONE',  ( -0.0000000000000000000, -0.0000000000000000000, -1.000000000000000000 ) ) ;
#178 = CARTESIAN_POINT ( 'NONE',  ( 4.996003610813200500E-016, 2.442490654175340100E-015, -0.2073688969916220000 ) ) ;
#179 = PERSON_AND_ORGANIZATION ( #23, #47 ) ;
#180 = VERTEX_POINT ( 'NONE', #126 ) ;
#181 = APPROVAL_PERSON_ORGANIZATION ( #101, #228, #138 ) ;
#182 = CARTESIAN_POINT ( 'NONE',  ( 8.514138139587588600, -12.85234485132133900, -0.2822981065569097900 ) ) ;
#183 = CC_DESIGN_PERSON_AND_ORGANIZATION_ASSIGNMENT ( #88, #30, ( #5 ) ) ;
#184 = CIRCLE ( 'NONE', #185, 12.69999999999999900 ) ;
#185 = AXIS2_PLACEMENT_3D ( 'NONE', #145, #162, #165 ) ;
#186 = COORDINATED_UNIVERSAL_TIME_OFFSET ( 2, 0, .AHEAD. ) ;
#187 = ORIENTED_EDGE ( 'NONE', *, *, #129, .T. ) ;
#188 = CARTESIAN_POINT ( 'NONE',  ( -4.260457248784815600, 4.285674797662092100, 0.07081749395434139300 ) ) ;
#189 = DATE_AND_TIME ( #2, #227 ) ;
#190 = ADVANCED_FACE ( 'NONE', ( #25 ), #221, .T. ) ;
#191 = CARTESIAN_POINT ( 'NONE',  ( -12.69999999999999900, 3.997792089092478900E-015, -0.2073688969916220000 ) ) ;
#192 = CARTESIAN_POINT ( 'NONE',  ( 12.69999999999999900, 2.442490654175340100E-015, -0.2073688969916220000 ) ) ;
#193 = ORIENTED_EDGE ( 'NONE', *, *, #95, .F. ) ;
#194 = CARTESIAN_POINT ( 'NONE',  ( 8.520339832203118700, -4.285674797662038000, 0.0008436115871191290000 ) ) ;
#195 = CC_DESIGN_APPROVAL ( #34, ( #5 ) ) ;
#196 = APPROVAL_ROLE ( '' ) ;
#197 = ORIENTED_EDGE ( 'NONE', *, *, #29, .T. ) ;
#198 = CARTESIAN_POINT ( 'NONE',  ( 4.996003610813200500E-016, 2.442490654175340100E-015, -0.2073688969916220000 ) ) ;
#199 = CARTESIAN_POINT ( 'NONE',  ( 4.260457248784983400, -4.285674797662036200, 0.07081749395436977300 ) ) ;
#200 = AXIS2_PLACEMENT_3D ( 'NONE', #198, #21, #148 ) ;
#201 = CARTESIAN_POINT ( 'NONE',  ( 12.69999999999999900, 2.442490654175340100E-015, 3.800000000000000300 ) ) ;
#202 = ORIENTED_EDGE ( 'NONE', *, *, #152, .F. ) ;
#203 = PRODUCT ( '112-0252E BK7 pl-cv 25.4 F-750', '112-0252E BK7 pl-cv 25.4 F-750', '', ( #96 ) ) ;
#204 = FACE_OUTER_BOUND ( 'NONE', #115, .T. ) ;
#205 = CC_DESIGN_DATE_AND_TIME_ASSIGNMENT ( #56, #226, ( #5 ) ) ;
#206 = EDGE_LOOP ( 'NONE', ( #83, #26, #187, #94, #36 ) ) ;
#207 = CARTESIAN_POINT ( 'NONE',  ( -12.76919749949531600, -12.85234485132133400, -0.4221251447252272200 ) ) ;
#208 = CARTESIAN_POINT ( 'NONE',  ( -12.77849857454725100, -4.285674797662031700, -0.1390852765037439400 ) ) ;
#209 = DIRECTION ( 'NONE',  ( 0.0000000000000000000, 0.0000000000000000000, 1.000000000000000000 ) ) ;
#210 = APPROVAL_STATUS ( 'not_yet_approved' ) ;
#211 = DIRECTION ( 'NONE',  ( 0.0000000000000000000, 0.0000000000000000000, 1.000000000000000000 ) ) ;
#212 = DATE_AND_TIME ( #74, #53 ) ;
#213 = CLOSED_SHELL ( 'NONE', ( #107, #176, #155, #190, #32 ) ) ;
#214 = CARTESIAN_POINT ( 'NONE',  ( -12.77849857454725000, 4.285674797662095700, -0.1390852765037426400 ) ) ;
#215 = DIRECTION ( 'NONE',  ( 1.000000000000000000, 0.0000000000000000000, 0.0000000000000000000 ) ) ;
#216 = PRODUCT_DEFINITION_SHAPE ( 'NONE', 'NONE',  #5 ) ;
#217 = VERTEX_POINT ( 'NONE', #121 ) ;
#218 = CARTESIAN_POINT ( 'NONE',  ( 2.179224083631028700E-013, 12.85234485132139600, -0.2123751560207942600 ) ) ;
#219 = PRODUCT_DEFINITION_FORMATION_WITH_SPECIFIED_SOURCE ( 'ANY', '', #203, .NOT_KNOWN. ) ;
#220 = ORIENTED_EDGE ( 'NONE', *, *, #17, .F. ) ;
#221 = CYLINDRICAL_SURFACE ( 'NONE', #72, 12.69999999999999900 ) ;
#222 = APPROVAL_DATE_TIME ( #97, #34 ) ;
#223 = EDGE_LOOP ( 'NONE', ( #44, #235, #197, #20, #220 ) ) ;
#224 = APPROVAL_STATUS ( 'not_yet_approved' ) ;
#225 = DIRECTION ( 'NONE',  ( 0.0000000000000000000, 0.0000000000000000000, 1.000000000000000000 ) ) ;
#226 = DATE_TIME_ROLE ( 'creation_date' ) ;
#227 = LOCAL_TIME ( 13, 36, 49.00000000000000000, #43 ) ;
#228 = APPROVAL ( #224, 'UNSPECIFIED' ) ;
#229 = DIRECTION ( 'NONE',  ( 0.0000000000000000000, 0.0000000000000000000, 1.000000000000000000 ) ) ;
#230 = CIRCLE ( 'NONE', #116, 12.69999999999999900 ) ;
#231 = CARTESIAN_POINT ( 'NONE',  ( 2.154357908761076900E-013, 4.285674797662092100, 0.07081749395437210400 ) ) ;
#232 = EDGE_CURVE ( 'NONE', #164, #180, #35, .T. ) ;
#233 = CARTESIAN_POINT ( 'NONE',  ( 12.77849857454709200, 4.285674797662087700, -0.1390852765036974200 ) ) ;
#234 = APPROVAL_PERSON_ORGANIZATION ( #49, #64, #12 ) ;
#235 = ORIENTED_EDGE ( 'NONE', *, *, #143, .T. ) ;
ENDSEC;
END-ISO-10303-21;
