ISO-10303-21;
HEADER;
FILE_DESCRIPTION (( 'STEP AP203' ),
    '1' );
FILE_NAME ('112-0250E BK7 pl-cv 25.4 F-650.STEP',
    '2019-01-15T11:20:44',
    ( '' ),
    ( '' ),
    'SwSTEP 2.0',
    'SolidWorks 2017',
    '' );
FILE_SCHEMA (( 'CONFIG_CONTROL_DESIGN' ));
ENDSEC;

DATA;
#1 = CALENDAR_DATE ( 2019, 15, 1 ) ;
#2 = DATE_TIME_ROLE ( 'classification_date' ) ;
#3 = EDGE_CURVE ( 'NONE', #193, #132, #86, .T. ) ;
#4 = EDGE_LOOP ( 'NONE', ( #199, #157, #23 ) ) ;
#5 = CC_DESIGN_DATE_AND_TIME_ASSIGNMENT ( #64, #2, ( #65 ) ) ;
#6 = VERTEX_POINT ( 'NONE', #123 ) ;
#7 = ADVANCED_FACE ( 'NONE', ( #234 ), #138, .T. ) ;
#8 = CARTESIAN_POINT ( 'NONE',  ( -7.806255641895631900E-014, -4.286185192850157800, 0.08171333548791399900 ) ) ;
#9 = CARTESIAN_POINT ( 'NONE',  ( 8.521291189359859100, -4.286185192850158600, 0.0009758397649350363700 ) ) ;
#10 = CARTESIAN_POINT ( 'NONE',  ( 4.909912249113269000E-016, 2.442490654175340100E-015, 3.699999999999999700 ) ) ;
#11 = DIRECTION ( 'NONE',  ( -2.185478394931410100E-018, 4.203157916946539700E-034, 1.000000000000000000 ) ) ;
#12 = DIRECTION ( 'NONE',  ( 1.000000000000000000, 0.0000000000000000000, 0.0000000000000000000 ) ) ;
#13 = EDGE_LOOP ( 'NONE', ( #70, #96, #230, #118, #174 ) ) ;
#14 = SHAPE_DEFINITION_REPRESENTATION ( #128, #77 ) ;
#15 = APPROVAL_ROLE ( '' ) ;
#16 = PLANE ( 'NONE',  #85 ) ;
#17 = LOCAL_TIME ( 13, 20, 44.00000000000000000, #156 ) ;
#18 = CC_DESIGN_PERSON_AND_ORGANIZATION_ASSIGNMENT ( #42, #201, ( #172 ) ) ;
#19 = DIRECTION ( 'NONE',  ( -2.185478394931410100E-018, 4.203157916946539700E-034, 1.000000000000000000 ) ) ;
#20 = CIRCLE ( 'NONE', #52, 337.1999999999999900 ) ;
#21 = APPROVAL_DATE_TIME ( #217, #197 ) ;
#22 = DIRECTION ( 'NONE',  ( -2.185478394931410100E-018, 4.203157916946539700E-034, 1.000000000000000000 ) ) ;
#23 = ORIENTED_EDGE ( 'NONE', *, *, #182, .F. ) ;
#24 = EDGE_CURVE ( 'NONE', #132, #221, #146, .T. ) ;
#25 = CARTESIAN_POINT ( 'NONE',  ( 3.702229844026652400E-015, -12.85232659589956600, -0.2450212549570673900 ) ) ;
#26 = CARTESIAN_POINT ( 'NONE',  ( 12.76688001920510900, 12.85232659589948900, -0.4869701427526278400 ) ) ;
#27 = LOCAL_TIME ( 13, 20, 44.00000000000000000, #107 ) ;
#28 = ADVANCED_FACE ( 'NONE', ( #100 ), #95, .F. ) ;
#29 = CARTESIAN_POINT ( 'NONE',  ( 3.702229844026652400E-015, 12.85232659589948900, -0.2450212549570673900 ) ) ;
#30 = CARTESIAN_POINT ( 'NONE',  ( 4.996003610813200500E-016, 2.442490654175340100E-015, -0.2392456086317449900 ) ) ;
#31 = AXIS2_PLACEMENT_3D ( 'NONE', #30, #149, #163 ) ;
#32 = ORIENTED_EDGE ( 'NONE', *, *, #139, .T. ) ;
#33 = DIRECTION ( 'NONE',  ( 1.000000000000000000, 0.0000000000000000000, 2.134256245050205600E-018 ) ) ;
#34 = DIRECTION ( 'NONE',  ( 1.000000000000000000, -1.200888064760449900E-031, -3.483820538958860000E-016 ) ) ;
#35 = DATE_TIME_ROLE ( 'creation_date' ) ;
#36 = CYLINDRICAL_SURFACE ( 'NONE', #31, 12.69999999999999900 ) ;
#37 = PERSON_AND_ORGANIZATION ( #115, #69 ) ;
#38 = VERTEX_POINT ( 'NONE', #145 ) ;
#39 = APPROVAL_ROLE ( '' ) ;
#40 = AXIS2_PLACEMENT_3D ( 'NONE', #176, #206, #223 ) ;
#41 = FACE_OUTER_BOUND ( 'NONE', #205, .T. ) ;
#42 = PERSON_AND_ORGANIZATION ( #115, #69 ) ;
#43 = CLOSED_SHELL ( 'NONE', ( #28, #226, #73, #7, #178 ) ) ;
#44 = MANIFOLD_SOLID_BREP ( 'Imported1', #43 ) ;
#45 = CC_DESIGN_APPROVAL ( #121, ( #104 ) ) ;
#46 = ORIENTED_EDGE ( 'NONE', *, *, #139, .F. ) ;
#47 = CARTESIAN_POINT ( 'NONE',  ( 3.816058311724696300E-015, -4.286185192850157800, 0.08171333548788088700 ) ) ;
#48 = COORDINATED_UNIVERSAL_TIME_OFFSET ( 2, 0, .AHEAD. ) ;
#49 = DIRECTION ( 'NONE',  ( -2.185478394931410100E-018, 4.203157916946539700E-034, 1.000000000000000000 ) ) ;
#50 = CARTESIAN_POINT ( 'NONE',  ( 8.513036367124511700, 12.85232659589949100, -0.3256805379232713400 ) ) ;
#51 = APPROVAL ( #62, 'UNSPECIFIED' ) ;
#52 = AXIS2_PLACEMENT_3D ( 'NONE', #183, #34, #219 ) ;
#53 = CARTESIAN_POINT ( 'NONE',  ( -4.256900298688394800, -12.85232659589956800, -0.2450212549570338300 ) ) ;
#54 = CIRCLE ( 'NONE', #94, 12.69999999999999900 ) ;
#55 = CARTESIAN_POINT ( 'NONE',  ( 4.996003610813200500E-016, 2.442490654175340100E-015, -0.2392456086317450200 ) ) ;
#56 = DIRECTION ( 'NONE',  ( 2.185478394931410100E-018, -4.203157916946539700E-034, -1.000000000000000000 ) ) ;
#57 = AXIS2_PLACEMENT_3D ( 'NONE', #105, #22, #224 ) ;
#58 = ORIENTED_EDGE ( 'NONE', *, *, #180, .F. ) ;
#59 = APPROVAL_ROLE ( '' ) ;
#60 = CALENDAR_DATE ( 2019, 15, 1 ) ;
#61 = DIRECTION ( 'NONE',  ( -2.185478394931410100E-018, 4.203157916946539700E-034, 1.000000000000000000 ) ) ;
#62 = APPROVAL_STATUS ( 'not_yet_approved' ) ;
#63 = FACE_OUTER_BOUND ( 'NONE', #140, .T. ) ;
#64 = DATE_AND_TIME ( #194, #166 ) ;
#65 = SECURITY_CLASSIFICATION ( '', '', #66 ) ;
#66 = SECURITY_CLASSIFICATION_LEVEL ( 'unclassified' ) ;
#67 = CARTESIAN_POINT ( 'NONE',  ( -12.76688001920528700, 12.85232659589948900, -0.4869701427526185200 ) ) ;
#68 = ORIENTED_EDGE ( 'NONE', *, *, #191, .T. ) ;
#69 = ORGANIZATION ( 'UNSPECIFIED', 'UNSPECIFIED', '' ) ;
#70 = ORIENTED_EDGE ( 'NONE', *, *, #109, .F. ) ;
#71 = APPROVAL_PERSON_ORGANIZATION ( #114, #51, #39 ) ;
#72 = CARTESIAN_POINT ( 'NONE',  ( -8.513036367124653800, -12.85232659589956800, -0.3256805379232614000 ) ) ;
#73 = ADVANCED_FACE ( 'NONE', ( #144 ), #225, .F. ) ;
#74 = CARTESIAN_POINT ( 'NONE',  ( -12.69999999999999900, 3.997792089092478900E-015, -0.2392456086317450400 ) ) ;
#75 = APPROVAL_DATE_TIME ( #122, #121 ) ;
#76 = CARTESIAN_POINT ( 'NONE',  ( -4.261028080331026800, 4.286185192850082300, 0.08171333548791544200 ) ) ;
#77 = ADVANCED_BREP_SHAPE_REPRESENTATION ( '112-0250E BK7 pl-cv 25.4 F-650', ( #44, #84 ), #117 ) ;
#78 = CC_DESIGN_DATE_AND_TIME_ASSIGNMENT ( #127, #35, ( #104 ) ) ;
#79 = APPLICATION_CONTEXT ( 'configuration controlled 3d designs of mechanical parts and assemblies' ) ;
#80 = CIRCLE ( 'NONE', #173, 12.69999999999999900 ) ;
#81 =( NAMED_UNIT ( * ) PLANE_ANGLE_UNIT ( ) SI_UNIT ( $, .RADIAN. ) );
#82 = PERSON_AND_ORGANIZATION_ROLE ( 'creator' ) ;
#83 = CALENDAR_DATE ( 2019, 15, 1 ) ;
#84 = AXIS2_PLACEMENT_3D ( 'NONE', #133, #120, #12 ) ;
#85 = AXIS2_PLACEMENT_3D ( 'NONE', #150, #232, #164 ) ;
#86 = LINE ( 'NONE', #89, #209 ) ;
#87 = CARTESIAN_POINT ( 'NONE',  ( -8.513036367124653800, 12.85232659589949100, -0.3256805379232614000 ) ) ;
#88 = CC_DESIGN_PERSON_AND_ORGANIZATION_ASSIGNMENT ( #186, #137, ( #65 ) ) ;
#89 = CARTESIAN_POINT ( 'NONE',  ( 12.69999999999999900, 2.442490654175340100E-015, -0.2392456086317449600 ) ) ;
#90 = CARTESIAN_POINT ( 'NONE',  ( -12.77925965914968000, -4.286185192850157800, -0.1604701624952298000 ) ) ;
#91 = EDGE_LOOP ( 'NONE', ( #58, #46, #108 ) ) ;
#92 = CARTESIAN_POINT ( 'NONE',  ( 4.256900298688285600, -12.85232659589956800, -0.2450212549570688300 ) ) ;
#93 = CARTESIAN_POINT ( 'NONE',  ( 4.261028080330918400, 4.286185192850082300, 0.08171333548788035900 ) ) ;
#94 = AXIS2_PLACEMENT_3D ( 'NONE', #55, #185, #235 ) ;
#95 =( BOUNDED_SURFACE ( )  B_SPLINE_SURFACE ( 3, 3, ( 
 ( #67, #87, #125, #222 ),
 ( #175, #159, #76, #147 ),
 ( #90, #111, #195, #8 ),
 ( #196, #72, #53, #148 ) ),
 .UNSPECIFIED., .F., .F., .F. ) 
 B_SPLINE_SURFACE_WITH_KNOTS ( ( 4, 4 ),
 ( 4, 4 ),
 ( 0.0000000000000000000, 1.000000000000000000 ),
 ( 0.0000000000000000000, 1.000000000000000000 ),
 .UNSPECIFIED. ) 
 GEOMETRIC_REPRESENTATION_ITEM ( )  RATIONAL_B_SPLINE_SURFACE ( (
 ( 1.000000000000000000, 0.9998803150651984800, 0.9998803150651984800, 1.000000000000000000),
 ( 0.9995155767992148800, 0.9993959498425725200, 0.9993959498425725200, 0.9995155767992148800),
 ( 0.9995155767992148800, 0.9993959498425725200, 0.9993959498425725200, 0.9995155767992148800),
 ( 1.000000000000000000, 0.9998803150651984800, 0.9998803150651984800, 1.000000000000000000) ) ) 
 REPRESENTATION_ITEM ( '' )  SURFACE ( )  );
#96 = ORIENTED_EDGE ( 'NONE', *, *, #182, .T. ) ;
#97 = DIRECTION ( 'NONE',  ( 1.000000000000000000, 0.0000000000000000000, 0.0000000000000000000 ) ) ;
#98 = PERSON_AND_ORGANIZATION_ROLE ( 'design_owner' ) ;
#99 = EDGE_CURVE ( 'NONE', #38, #193, #124, .T. ) ;
#100 = FACE_OUTER_BOUND ( 'NONE', #4, .T. ) ;
#101 = PERSON_AND_ORGANIZATION ( #115, #69 ) ;
#102 = CARTESIAN_POINT ( 'NONE',  ( 12.69999999999999900, 2.442490654175340100E-015, -0.2392456086317449900 ) ) ;
#103 = ORIENTED_EDGE ( 'NONE', *, *, #170, .T. ) ;
#104 = PRODUCT_DEFINITION ( 'UNKNOWN', '', #172, #220 ) ;
#105 = CARTESIAN_POINT ( 'NONE',  ( 4.996003610813200500E-016, 2.442490654175340100E-015, -0.2392456086317449900 ) ) ;
#106 = CC_DESIGN_PERSON_AND_ORGANIZATION_ASSIGNMENT ( #37, #98, ( #167 ) ) ;
#107 = COORDINATED_UNIVERSAL_TIME_OFFSET ( 2, 0, .AHEAD. ) ;
#108 = ORIENTED_EDGE ( 'NONE', *, *, #99, .F. ) ;
#109 = EDGE_CURVE ( 'NONE', #169, #221, #113, .T. ) ;
#110 = CARTESIAN_POINT ( 'NONE',  ( 12.76688001920510900, -12.85232659589956600, -0.4869701427526278400 ) ) ;
#111 = CARTESIAN_POINT ( 'NONE',  ( -8.521291189360001200, -4.286185192850158600, 0.0009758397649449837000 ) ) ;
#112 = CARTESIAN_POINT ( 'NONE',  ( 8.521291189359859100, 4.286185192850082300, 0.0009758397649360122600 ) ) ;
#113 = LINE ( 'NONE', #211, #227 ) ;
#114 = PERSON_AND_ORGANIZATION ( #115, #69 ) ;
#115 = PERSON ( 'UNSPECIFIED', 'UNSPECIFIED', 'UNSPECIFIED', ('UNSPECIFIED'), ('UNSPECIFIED'), ('UNSPECIFIED') ) ;
#116 = CARTESIAN_POINT ( 'NONE',  ( -12.69999999999999900, 3.997792089092478900E-015, 3.699999999999999700 ) ) ;
#117 =( GEOMETRIC_REPRESENTATION_CONTEXT ( 3 ) GLOBAL_UNCERTAINTY_ASSIGNED_CONTEXT ( ( #126 ) ) GLOBAL_UNIT_ASSIGNED_CONTEXT ( ( #168, #81, #131 ) ) REPRESENTATION_CONTEXT ( 'NONE', 'WORKASPACE' ) );
#118 = ORIENTED_EDGE ( 'NONE', *, *, #3, .T. ) ;
#119 = APPLICATION_CONTEXT ( 'configuration controlled 3d designs of mechanical parts and assemblies' ) ;
#120 = DIRECTION ( 'NONE',  ( 0.0000000000000000000, 0.0000000000000000000, 1.000000000000000000 ) ) ;
#121 = APPROVAL ( #134, 'UNSPECIFIED' ) ;
#122 = DATE_AND_TIME ( #83, #210 ) ;
#123 = CARTESIAN_POINT ( 'NONE',  ( 3.704241975556042100E-015, 12.70000000000013600, -0.2392456086317500700 ) ) ;
#124 = CIRCLE ( 'NONE', #143, 12.69999999999999900 ) ;
#125 = CARTESIAN_POINT ( 'NONE',  ( -4.256900298688394800, 12.85232659589949100, -0.2450212549570338300 ) ) ;
#126 = UNCERTAINTY_MEASURE_WITH_UNIT (LENGTH_MEASURE( 1.000000000000000100E-005 ), #168, 'distance_accuracy_value', 'NONE');
#127 = DATE_AND_TIME ( #200, #17 ) ;
#128 = PRODUCT_DEFINITION_SHAPE ( 'NONE', 'NONE',  #104 ) ;
#129 = APPROVAL_PERSON_ORGANIZATION ( #204, #121, #15 ) ;
#130 = CC_DESIGN_PERSON_AND_ORGANIZATION_ASSIGNMENT ( #154, #153, ( #104 ) ) ;
#131 =( NAMED_UNIT ( * ) SI_UNIT ( $, .STERADIAN. ) SOLID_ANGLE_UNIT ( ) );
#132 = VERTEX_POINT ( 'NONE', #202 ) ;
#133 = CARTESIAN_POINT ( 'NONE',  ( 0.0000000000000000000, 0.0000000000000000000, 0.0000000000000000000 ) ) ;
#134 = APPROVAL_STATUS ( 'not_yet_approved' ) ;
#135 = APPROVAL_STATUS ( 'not_yet_approved' ) ;
#136 = LOCAL_TIME ( 13, 20, 44.00000000000000000, #213 ) ;
#137 = PERSON_AND_ORGANIZATION_ROLE ( 'classification_officer' ) ;
#138 = CYLINDRICAL_SURFACE ( 'NONE', #57, 12.69999999999999900 ) ;
#139 = EDGE_CURVE ( 'NONE', #193, #6, #80, .T. ) ;
#140 = EDGE_LOOP ( 'NONE', ( #32, #103, #190, #68, #188 ) ) ;
#141 = DATE_AND_TIME ( #1, #136 ) ;
#142 = CC_DESIGN_APPROVAL ( #51, ( #65 ) ) ;
#143 = AXIS2_PLACEMENT_3D ( 'NONE', #212, #231, #216 ) ;
#144 = FACE_OUTER_BOUND ( 'NONE', #91, .T. ) ;
#145 = CARTESIAN_POINT ( 'NONE',  ( 3.704241975556041300E-015, -12.70000000000019300, -0.2392456086317500700 ) ) ;
#146 = CIRCLE ( 'NONE', #40, 12.69999999999999900 ) ;
#147 = CARTESIAN_POINT ( 'NONE',  ( -7.806255641895631900E-014, 4.286185192850081400, 0.08171333548791497000 ) ) ;
#148 = CARTESIAN_POINT ( 'NONE',  ( -7.806255641895631900E-014, -12.85232659589956600, -0.2450212549570342800 ) ) ;
#149 = DIRECTION ( 'NONE',  ( -2.185478394931410100E-018, 4.203157916946539700E-034, 1.000000000000000000 ) ) ;
#150 = CARTESIAN_POINT ( 'NONE',  ( 0.0000000000000000000, 26.11199999999999800, 3.700000000000000200 ) ) ;
#151 = CC_DESIGN_PERSON_AND_ORGANIZATION_ASSIGNMENT ( #228, #82, ( #172 ) ) ;
#152 = MECHANICAL_CONTEXT ( 'NONE', #79, 'mechanical' ) ;
#153 = PERSON_AND_ORGANIZATION_ROLE ( 'creator' ) ;
#154 = PERSON_AND_ORGANIZATION ( #115, #69 ) ;
#155 = PRODUCT_RELATED_PRODUCT_CATEGORY ( 'detail', '', ( #167 ) ) ;
#156 = COORDINATED_UNIVERSAL_TIME_OFFSET ( 2, 0, .AHEAD. ) ;
#157 = ORIENTED_EDGE ( 'NONE', *, *, #180, .T. ) ;
#158 = CIRCLE ( 'NONE', #208, 12.69999999999999900 ) ;
#159 = CARTESIAN_POINT ( 'NONE',  ( -8.521291189360001200, 4.286185192850082300, 0.0009758397649459593800 ) ) ;
#160 = CARTESIAN_POINT ( 'NONE',  ( 12.77925965914950300, 4.286185192850081400, -0.1604701624952381600 ) ) ;
#161 = APPROVAL_PERSON_ORGANIZATION ( #101, #197, #59 ) ;
#162 = CARTESIAN_POINT ( 'NONE',  ( 4.256900298688285600, 12.85232659589949100, -0.2450212549570688300 ) ) ;
#163 = DIRECTION ( 'NONE',  ( 1.000000000000000000, 0.0000000000000000000, 2.134256245050205600E-018 ) ) ;
#164 = DIRECTION ( 'NONE',  ( 1.000000000000000000, 0.0000000000000000000, -0.0000000000000000000 ) ) ;
#165 = CARTESIAN_POINT ( 'NONE',  ( 4.996003610813200500E-016, 2.442490654175340100E-015, -0.2392456086317450200 ) ) ;
#166 = LOCAL_TIME ( 13, 20, 44.00000000000000000, #48 ) ;
#167 = PRODUCT ( '112-0250E BK7 pl-cv 25.4 F-650', '112-0250E BK7 pl-cv 25.4 F-650', '', ( #152 ) ) ;
#168 =( LENGTH_UNIT ( ) NAMED_UNIT ( * ) SI_UNIT ( .MILLI., .METRE. ) );
#169 = VERTEX_POINT ( 'NONE', #74 ) ;
#170 = EDGE_CURVE ( 'NONE', #6, #169, #158, .T. ) ;
#171 = APPROVAL_DATE_TIME ( #141, #51 ) ;
#172 = PRODUCT_DEFINITION_FORMATION_WITH_SPECIFIED_SOURCE ( 'ANY', '', #167, .NOT_KNOWN. ) ;
#173 = AXIS2_PLACEMENT_3D ( 'NONE', #165, #61, #33 ) ;
#174 = ORIENTED_EDGE ( 'NONE', *, *, #24, .T. ) ;
#175 = CARTESIAN_POINT ( 'NONE',  ( -12.77925965914968000, 4.286185192850081400, -0.1604701624952288300 ) ) ;
#176 = CARTESIAN_POINT ( 'NONE',  ( 4.909912249113269000E-016, 2.442490654175340100E-015, 3.699999999999999700 ) ) ;
#177 = CARTESIAN_POINT ( 'NONE',  ( 8.513036367124511700, -12.85232659589956800, -0.3256805379232713400 ) ) ;
#178 = ADVANCED_FACE ( 'NONE', ( #41 ), #16, .T. ) ;
#179 = CARTESIAN_POINT ( 'NONE',  ( 12.77925965914950300, -4.286185192850157800, -0.1604701624952391300 ) ) ;
#180 = EDGE_CURVE ( 'NONE', #6, #38, #20, .T. ) ;
#181 = CIRCLE ( 'NONE', #192, 12.69999999999999900 ) ;
#182 = EDGE_CURVE ( 'NONE', #169, #38, #54, .T. ) ;
#183 = CARTESIAN_POINT ( 'NONE',  ( -1.136868377216160000E-013, -5.684341886080800200E-014, -337.1999999999999900 ) ) ;
#184 = DIRECTION ( 'NONE',  ( 1.000000000000000000, 0.0000000000000000000, 2.134256245050205600E-018 ) ) ;
#185 = DIRECTION ( 'NONE',  ( -2.185478394931410100E-018, 4.203157916946539700E-034, 1.000000000000000000 ) ) ;
#186 = PERSON_AND_ORGANIZATION ( #115, #69 ) ;
#187 = CC_DESIGN_SECURITY_CLASSIFICATION ( #65, ( #172 ) ) ;
#188 = ORIENTED_EDGE ( 'NONE', *, *, #3, .F. ) ;
#189 = COORDINATED_UNIVERSAL_TIME_OFFSET ( 2, 0, .AHEAD. ) ;
#190 = ORIENTED_EDGE ( 'NONE', *, *, #109, .T. ) ;
#191 = EDGE_CURVE ( 'NONE', #221, #132, #181, .T. ) ;
#192 = AXIS2_PLACEMENT_3D ( 'NONE', #10, #56, #97 ) ;
#193 = VERTEX_POINT ( 'NONE', #102 ) ;
#194 = CALENDAR_DATE ( 2019, 15, 1 ) ;
#195 = CARTESIAN_POINT ( 'NONE',  ( -4.261028080331026800, -4.286185192850158600, 0.08171333548791445700 ) ) ;
#196 = CARTESIAN_POINT ( 'NONE',  ( -12.76688001920528700, -12.85232659589956600, -0.4869701427526185200 ) ) ;
#197 = APPROVAL ( #135, 'UNSPECIFIED' ) ;
#198 = APPLICATION_PROTOCOL_DEFINITION ( 'international standard', 'config_control_design', 1994, #79 ) ;
#199 = ORIENTED_EDGE ( 'NONE', *, *, #170, .F. ) ;
#200 = CALENDAR_DATE ( 2019, 15, 1 ) ;
#201 = PERSON_AND_ORGANIZATION_ROLE ( 'design_supplier' ) ;
#202 = CARTESIAN_POINT ( 'NONE',  ( 12.69999999999999900, 2.442490654175340100E-015, 3.699999999999999700 ) ) ;
#203 = ORIENTED_EDGE ( 'NONE', *, *, #24, .F. ) ;
#204 = PERSON_AND_ORGANIZATION ( #115, #69 ) ;
#205 = EDGE_LOOP ( 'NONE', ( #203, #215 ) ) ;
#206 = DIRECTION ( 'NONE',  ( 2.185478394931410100E-018, -4.203157916946539700E-034, -1.000000000000000000 ) ) ;
#207 = CC_DESIGN_APPROVAL ( #197, ( #172 ) ) ;
#208 = AXIS2_PLACEMENT_3D ( 'NONE', #218, #11, #184 ) ;
#209 = VECTOR ( 'NONE', #19, 1000.000000000000000 ) ;
#210 = LOCAL_TIME ( 13, 20, 44.00000000000000000, #189 ) ;
#211 = CARTESIAN_POINT ( 'NONE',  ( -12.69999999999999900, 3.997792089092478900E-015, -0.2392456086317450200 ) ) ;
#212 = CARTESIAN_POINT ( 'NONE',  ( 4.996003610813200500E-016, 2.442490654175340100E-015, -0.2392456086317450200 ) ) ;
#213 = COORDINATED_UNIVERSAL_TIME_OFFSET ( 2, 0, .AHEAD. ) ;
#214 = CARTESIAN_POINT ( 'NONE',  ( 4.261028080330918400, -4.286185192850158600, 0.08171333548787938800 ) ) ;
#215 = ORIENTED_EDGE ( 'NONE', *, *, #191, .F. ) ;
#216 = DIRECTION ( 'NONE',  ( 1.000000000000000000, 0.0000000000000000000, 2.134256245050205600E-018 ) ) ;
#217 = DATE_AND_TIME ( #60, #27 ) ;
#218 = CARTESIAN_POINT ( 'NONE',  ( 4.996003610813200500E-016, 2.442490654175340100E-015, -0.2392456086317450200 ) ) ;
#219 = DIRECTION ( 'NONE',  ( 0.0000000000000000000, 1.000000000000000000, -3.292476348235933000E-016 ) ) ;
#220 = DESIGN_CONTEXT ( 'detailed design', #119, 'design' ) ;
#221 = VERTEX_POINT ( 'NONE', #116 ) ;
#222 = CARTESIAN_POINT ( 'NONE',  ( -7.806255641895631900E-014, 12.85232659589948900, -0.2450212549570342800 ) ) ;
#223 = DIRECTION ( 'NONE',  ( 1.000000000000000000, 0.0000000000000000000, 0.0000000000000000000 ) ) ;
#224 = DIRECTION ( 'NONE',  ( 1.000000000000000000, 0.0000000000000000000, 2.134256245050205600E-018 ) ) ;
#225 =( BOUNDED_SURFACE ( )  B_SPLINE_SURFACE ( 3, 3, ( 
 ( #29, #162, #50, #26 ),
 ( #229, #93, #112, #160 ),
 ( #47, #214, #9, #179 ),
 ( #25, #92, #177, #110 ) ),
 .UNSPECIFIED., .F., .F., .F. ) 
 B_SPLINE_SURFACE_WITH_KNOTS ( ( 4, 4 ),
 ( 4, 4 ),
 ( 0.0000000000000000000, 1.000000000000000000 ),
 ( 0.0000000000000000000, 1.000000000000000000 ),
 .UNSPECIFIED. ) 
 GEOMETRIC_REPRESENTATION_ITEM ( )  RATIONAL_B_SPLINE_SURFACE ( (
 ( 1.000000000000000000, 0.9998803150651984800, 0.9998803150651984800, 1.000000000000000000),
 ( 0.9995155767992148800, 0.9993959498425725200, 0.9993959498425725200, 0.9995155767992148800),
 ( 0.9995155767992148800, 0.9993959498425725200, 0.9993959498425725200, 0.9995155767992148800),
 ( 1.000000000000000000, 0.9998803150651984800, 0.9998803150651984800, 1.000000000000000000) ) ) 
 REPRESENTATION_ITEM ( '' )  SURFACE ( )  );
#226 = ADVANCED_FACE ( 'NONE', ( #63 ), #36, .T. ) ;
#227 = VECTOR ( 'NONE', #49, 1000.000000000000000 ) ;
#228 = PERSON_AND_ORGANIZATION ( #115, #69 ) ;
#229 = CARTESIAN_POINT ( 'NONE',  ( 3.816058311724694700E-015, 4.286185192850081400, 0.08171333548788185800 ) ) ;
#230 = ORIENTED_EDGE ( 'NONE', *, *, #99, .T. ) ;
#231 = DIRECTION ( 'NONE',  ( -2.185478394931410100E-018, 4.203157916946539700E-034, 1.000000000000000000 ) ) ;
#232 = DIRECTION ( 'NONE',  ( 0.0000000000000000000, 0.0000000000000000000, 1.000000000000000000 ) ) ;
#233 = APPLICATION_PROTOCOL_DEFINITION ( 'international standard', 'config_control_design', 1994, #119 ) ;
#234 = FACE_OUTER_BOUND ( 'NONE', #13, .T. ) ;
#235 = DIRECTION ( 'NONE',  ( 1.000000000000000000, 0.0000000000000000000, 2.134256245050205600E-018 ) ) ;
ENDSEC;
END-ISO-10303-21;
