ISO-10303-21;
HEADER;
FILE_DESCRIPTION (( 'STEP AP203' ),
    '1' );
FILE_NAME ('112-0247E BK7 pl-cv 25.4 F-500.STEP',
    '2019-01-15T11:01:18',
    ( '' ),
    ( '' ),
    'SwSTEP 2.0',
    'SolidWorks 2017',
    '' );
FILE_SCHEMA (( 'CONFIG_CONTROL_DESIGN' ));
ENDSEC;

DATA;
#1 = EDGE_CURVE ( 'NONE', #28, #232, #171, .T. ) ;
#2 = COORDINATED_UNIVERSAL_TIME_OFFSET ( 2, 0, .AHEAD. ) ;
#3 = ORIENTED_EDGE ( 'NONE', *, *, #67, .T. ) ;
#4 = CARTESIAN_POINT ( 'NONE',  ( 2.842170943040400100E-014, 2.842170943040400100E-014, -259.3999999999999800 ) ) ;
#5 = CARTESIAN_POINT ( 'NONE',  ( 12.78137319883065500, 4.287602561648492700, -0.2086669922542330500 ) ) ;
#6 = APPROVAL ( #141, 'UNSPECIFIED' ) ;
#7 = CARTESIAN_POINT ( 'NONE',  ( 8.509977623790440800, 12.85227591330463800, -0.4234186073584906800 ) ) ;
#8 = SHAPE_DEFINITION_REPRESENTATION ( #125, #89 ) ;
#9 = CARTESIAN_POINT ( 'NONE',  ( 4.996003610813200500E-016, 2.442490654175340100E-015, -0.3110770411054399900 ) ) ;
#10 = CARTESIAN_POINT ( 'NONE',  ( -12.69999999999999900, 3.997792089092478900E-015, 3.700000000000000200 ) ) ;
#11 = CARTESIAN_POINT ( 'NONE',  ( 0.0000000000000000000, 26.11199999999999800, 3.700000000000000200 ) ) ;
#12 = APPROVAL_DATE_TIME ( #104, #170 ) ;
#13 = PERSON_AND_ORGANIZATION_ROLE ( 'design_owner' ) ;
#14 = APPROVAL_ROLE ( '' ) ;
#15 =( BOUNDED_SURFACE ( )  B_SPLINE_SURFACE ( 3, 3, ( 
 ( #163, #70, #7, #57 ),
 ( #110, #219, #109, #5 ),
 ( #130, #183, #37, #178 ),
 ( #185, #199, #221, #218 ) ),
 .UNSPECIFIED., .F., .F., .T. ) 
 B_SPLINE_SURFACE_WITH_KNOTS ( ( 4, 4 ),
 ( 4, 4 ),
 ( 0.0000000000000000000, 1.000000000000000000 ),
 ( 0.0000000000000000000, 1.000000000000000000 ),
 .UNSPECIFIED. ) 
 GEOMETRIC_REPRESENTATION_ITEM ( )  RATIONAL_B_SPLINE_SURFACE ( (
 ( 1.000000000000000000, 0.9997976945634113900, 0.9997976945634113900, 1.000000000000000000),
 ( 0.9991812229570113900, 0.9989790831634699500, 0.9989790831634699500, 0.9991812229570113900),
 ( 0.9991812229570113900, 0.9989790831634699500, 0.9989790831634699500, 0.9991812229570113900),
 ( 1.000000000000000000, 0.9997976945634113900, 0.9997976945634113900, 1.000000000000000000) ) ) 
 REPRESENTATION_ITEM ( '' )  SURFACE ( )  );
#16 = LOCAL_TIME ( 13, 1, 18.00000000000000000, #85 ) ;
#17 = CIRCLE ( 'NONE', #161, 12.69999999999999900 ) ;
#18 = CC_DESIGN_PERSON_AND_ORGANIZATION_ASSIGNMENT ( #146, #31, ( #217 ) ) ;
#19 = COORDINATED_UNIVERSAL_TIME_OFFSET ( 2, 0, .AHEAD. ) ;
#20 = CALENDAR_DATE ( 2019, 15, 1 ) ;
#21 = ORIENTED_EDGE ( 'NONE', *, *, #103, .F. ) ;
#22 = CARTESIAN_POINT ( 'NONE',  ( 4.996003610813200500E-016, 2.442490654175340100E-015, -0.3110770411054399900 ) ) ;
#23 = DIRECTION ( 'NONE',  ( 1.000000000000000000, 0.0000000000000000000, -0.0000000000000000000 ) ) ;
#24 = CARTESIAN_POINT ( 'NONE',  ( -8.509977623790355500, 12.85227591330464100, -0.4234186073584737500 ) ) ;
#25 = PERSON_AND_ORGANIZATION ( #173, #99 ) ;
#26 = DIRECTION ( 'NONE',  ( 0.0000000000000000000, 0.0000000000000000000, 1.000000000000000000 ) ) ;
#27 = APPROVAL_STATUS ( 'not_yet_approved' ) ;
#28 = VERTEX_POINT ( 'NONE', #40 ) ;
#29 = ADVANCED_FACE ( 'NONE', ( #176 ), #15, .F. ) ;
#30 = SECURITY_CLASSIFICATION ( '', '', #48 ) ;
#31 = PERSON_AND_ORGANIZATION_ROLE ( 'design_supplier' ) ;
#32 = APPROVAL_DATE_TIME ( #216, #121 ) ;
#33 = CC_DESIGN_DATE_AND_TIME_ASSIGNMENT ( #66, #209, ( #129 ) ) ;
#34 = EDGE_LOOP ( 'NONE', ( #101, #50, #77, #166, #132 ) ) ;
#35 = VERTEX_POINT ( 'NONE', #165 ) ;
#36 = APPROVAL_PERSON_ORGANIZATION ( #25, #170, #172 ) ;
#37 = CARTESIAN_POINT ( 'NONE',  ( 8.523933167001779100, -4.287602561648466100, 0.001278029004715577300 ) ) ;
#38 = FACE_OUTER_BOUND ( 'NONE', #34, .T. ) ;
#39 = PRODUCT_RELATED_PRODUCT_CATEGORY ( 'detail', '', ( #115 ) ) ;
#40 = CARTESIAN_POINT ( 'NONE',  ( 1.400986670378589300E-013, 12.69999999999990500, -0.3110770411054426500 ) ) ;
#41 = CARTESIAN_POINT ( 'NONE',  ( 4.996003610813200500E-016, 2.442490654175340100E-015, 3.700000000000000200 ) ) ;
#42 = DIRECTION ( 'NONE',  ( -0.0000000000000000000, -0.0000000000000000000, -1.000000000000000000 ) ) ;
#43 = CARTESIAN_POINT ( 'NONE',  ( 7.285838599102592300E-014, 4.287602561648496300, 0.1062824040681157300 ) ) ;
#44 = DIRECTION ( 'NONE',  ( 1.000000000000000000, 0.0000000000000000000, 0.0000000000000000000 ) ) ;
#45 = CARTESIAN_POINT ( 'NONE',  ( -8.509977623790362600, -12.85227591330460800, -0.4234186073584737500 ) ) ;
#46 = DIRECTION ( 'NONE',  ( 0.0000000000000000000, 0.0000000000000000000, 1.000000000000000000 ) ) ;
#47 = DATE_AND_TIME ( #108, #175 ) ;
#48 = SECURITY_CLASSIFICATION_LEVEL ( 'unclassified' ) ;
#49 = CIRCLE ( 'NONE', #182, 12.69999999999999900 ) ;
#50 = ORIENTED_EDGE ( 'NONE', *, *, #54, .T. ) ;
#51 = EDGE_CURVE ( 'NONE', #232, #215, #207, .T. ) ;
#52 = DATE_AND_TIME ( #159, #228 ) ;
#53 = EDGE_LOOP ( 'NONE', ( #192, #124, #136 ) ) ;
#54 = EDGE_CURVE ( 'NONE', #28, #94, #181, .T. ) ;
#55 = FACE_OUTER_BOUND ( 'NONE', #128, .T. ) ;
#56 = CARTESIAN_POINT ( 'NONE',  ( 6.938893903907228400E-014, -4.287602561648464300, 0.1062824040681168300 ) ) ;
#57 = CARTESIAN_POINT ( 'NONE',  ( 12.76044729496892100, 12.85227591330463600, -0.6330199026920021500 ) ) ;
#58 = CARTESIAN_POINT ( 'NONE',  ( -12.76044729496890900, -12.85227591330460800, -0.6330199026919891600 ) ) ;
#59 = DIRECTION ( 'NONE',  ( 1.000000000000000000, 0.0000000000000000000, 0.0000000000000000000 ) ) ;
#60 = LOCAL_TIME ( 13, 1, 18.00000000000000000, #19 ) ;
#61 = APPROVAL_ROLE ( '' ) ;
#62 = EDGE_CURVE ( 'NONE', #35, #111, #49, .T. ) ;
#63 = PERSON_AND_ORGANIZATION ( #173, #99 ) ;
#64 = CC_DESIGN_PERSON_AND_ORGANIZATION_ASSIGNMENT ( #142, #83, ( #30 ) ) ;
#65 = ORIENTED_EDGE ( 'NONE', *, *, #51, .T. ) ;
#66 = DATE_AND_TIME ( #118, #60 ) ;
#67 = EDGE_CURVE ( 'NONE', #94, #232, #143, .T. ) ;
#68 = CLOSED_SHELL ( 'NONE', ( #140, #145, #29, #190, #193 ) ) ;
#69 = DIRECTION ( 'NONE',  ( 1.000000000000000000, 0.0000000000000000000, 0.0000000000000000000 ) ) ;
#70 = CARTESIAN_POINT ( 'NONE',  ( 4.255634515394240800, 12.85227591330463800, -0.3185861474268598100 ) ) ;
#71 = DIRECTION ( 'NONE',  ( 1.000000000000000000, 0.0000000000000000000, 0.0000000000000000000 ) ) ;
#72 = AXIS2_PLACEMENT_3D ( 'NONE', #137, #46, #116 ) ;
#73 = CARTESIAN_POINT ( 'NONE',  ( 4.996003610813200500E-016, 2.442490654175340100E-015, -0.3110770411054399900 ) ) ;
#74 = APPLICATION_PROTOCOL_DEFINITION ( 'international standard', 'config_control_design', 1994, #112 ) ;
#75 = EDGE_CURVE ( 'NONE', #215, #28, #160, .T. ) ;
#76 = CARTESIAN_POINT ( 'NONE',  ( 4.996003610813200500E-016, 2.442490654175340100E-015, -0.3110770411054399900 ) ) ;
#77 = ORIENTED_EDGE ( 'NONE', *, *, #98, .T. ) ;
#78 = CARTESIAN_POINT ( 'NONE',  ( 12.69999999999999900, 2.442490654175340100E-015, -0.3110770411054399900 ) ) ;
#79 = CARTESIAN_POINT ( 'NONE',  ( -4.255634515394098600, -12.85227591330460800, -0.3185861474268556500 ) ) ;
#80 = DIRECTION ( 'NONE',  ( 0.0000000000000000000, 0.0000000000000000000, 1.000000000000000000 ) ) ;
#81 = APPLICATION_PROTOCOL_DEFINITION ( 'international standard', 'config_control_design', 1994, #123 ) ;
#82 = ORIENTED_EDGE ( 'NONE', *, *, #62, .F. ) ;
#83 = PERSON_AND_ORGANIZATION_ROLE ( 'classification_officer' ) ;
#84 = ORIENTED_EDGE ( 'NONE', *, *, #88, .T. ) ;
#85 = COORDINATED_UNIVERSAL_TIME_OFFSET ( 2, 0, .AHEAD. ) ;
#86 = AXIS2_PLACEMENT_3D ( 'NONE', #76, #96, #44 ) ;
#87 = LINE ( 'NONE', #113, #234 ) ;
#88 = EDGE_CURVE ( 'NONE', #215, #35, #126, .T. ) ;
#89 = ADVANCED_BREP_SHAPE_REPRESENTATION ( '112-0247E BK7 pl-cv 25.4 F-500', ( #117, #200 ), #225 ) ;
#90 = COORDINATED_UNIVERSAL_TIME_OFFSET ( 2, 0, .AHEAD. ) ;
#91 = ORIENTED_EDGE ( 'NONE', *, *, #54, .F. ) ;
#92 = DIRECTION ( 'NONE',  ( 1.000000000000000000, 0.0000000000000000000, 0.0000000000000000000 ) ) ;
#93 = CARTESIAN_POINT ( 'NONE',  ( 1.344079358883529600E-013, -12.69999999999987700, -0.3110770411054426500 ) ) ;
#94 = VERTEX_POINT ( 'NONE', #223 ) ;
#95 = PLANE ( 'NONE',  #105 ) ;
#96 = DIRECTION ( 'NONE',  ( 0.0000000000000000000, 0.0000000000000000000, 1.000000000000000000 ) ) ;
#97 = CC_DESIGN_PERSON_AND_ORGANIZATION_ASSIGNMENT ( #195, #208, ( #129 ) ) ;
#98 = EDGE_CURVE ( 'NONE', #94, #111, #87, .T. ) ;
#99 = ORGANIZATION ( 'UNSPECIFIED', 'UNSPECIFIED', '' ) ;
#100 = CARTESIAN_POINT ( 'NONE',  ( -4.255634515394091500, 12.85227591330464100, -0.3185861474268556500 ) ) ;
#101 = ORIENTED_EDGE ( 'NONE', *, *, #75, .T. ) ;
#102 = FACE_OUTER_BOUND ( 'NONE', #122, .T. ) ;
#103 = EDGE_CURVE ( 'NONE', #111, #35, #17, .T. ) ;
#104 = DATE_AND_TIME ( #148, #204 ) ;
#105 = AXIS2_PLACEMENT_3D ( 'NONE', #11, #227, #23 ) ;
#106 = UNCERTAINTY_MEASURE_WITH_UNIT (LENGTH_MEASURE( 1.000000000000000100E-005 ), #167, 'distance_accuracy_value', 'NONE');
#107 = CC_DESIGN_SECURITY_CLASSIFICATION ( #30, ( #217 ) ) ;
#108 = CALENDAR_DATE ( 2019, 15, 1 ) ;
#109 = CARTESIAN_POINT ( 'NONE',  ( 8.523933167001782600, 4.287602561648491900, 0.001278029004714710400 ) ) ;
#110 = CARTESIAN_POINT ( 'NONE',  ( 1.383892292915098400E-013, 4.287602561648495400, 0.1062824040681141100 ) ) ;
#111 = VERTEX_POINT ( 'NONE', #10 ) ;
#112 = APPLICATION_CONTEXT ( 'configuration controlled 3d designs of mechanical parts and assemblies' ) ;
#113 = CARTESIAN_POINT ( 'NONE',  ( -12.69999999999999900, 3.997792089092478900E-015, -0.3110770411054399900 ) ) ;
#114 = CARTESIAN_POINT ( 'NONE',  ( -12.78137319883064100, -4.287602561648461700, -0.2086669922542192200 ) ) ;
#115 = PRODUCT ( '112-0247E BK7 pl-cv 25.4 F-500', '112-0247E BK7 pl-cv 25.4 F-500', '', ( #206 ) ) ;
#116 = DIRECTION ( 'NONE',  ( 1.000000000000000000, 0.0000000000000000000, 0.0000000000000000000 ) ) ;
#117 = MANIFOLD_SOLID_BREP ( 'Imported1', #68 ) ;
#118 = CALENDAR_DATE ( 2019, 15, 1 ) ;
#119 = CARTESIAN_POINT ( 'NONE',  ( -8.523933167001702700, -4.287602561648461700, 0.001278029004732464000 ) ) ;
#120 = CARTESIAN_POINT ( 'NONE',  ( -12.76044729496890200, 12.85227591330464300, -0.6330199026919891600 ) ) ;
#121 = APPROVAL ( #194, 'UNSPECIFIED' ) ;
#122 = EDGE_LOOP ( 'NONE', ( #82, #21 ) ) ;
#123 = APPLICATION_CONTEXT ( 'configuration controlled 3d designs of mechanical parts and assemblies' ) ;
#124 = ORIENTED_EDGE ( 'NONE', *, *, #75, .F. ) ;
#125 = PRODUCT_DEFINITION_SHAPE ( 'NONE', 'NONE',  #129 ) ;
#126 = LINE ( 'NONE', #186, #144 ) ;
#127 = CC_DESIGN_PERSON_AND_ORGANIZATION_ASSIGNMENT ( #154, #13, ( #115 ) ) ;
#128 = EDGE_LOOP ( 'NONE', ( #201, #3, #65, #84, #147 ) ) ;
#129 = PRODUCT_DEFINITION ( 'UNKNOWN', '', #217, #230 ) ;
#130 = CARTESIAN_POINT ( 'NONE',  ( 1.364680014604646000E-013, -4.287602561648465200, 0.1062824040681149700 ) ) ;
#131 = APPROVAL_PERSON_ORGANIZATION ( #191, #6, #61 ) ;
#132 = ORIENTED_EDGE ( 'NONE', *, *, #88, .F. ) ;
#133 = AXIS2_PLACEMENT_3D ( 'NONE', #22, #202, #92 ) ;
#134 =( NAMED_UNIT ( * ) SI_UNIT ( $, .STERADIAN. ) SOLID_ANGLE_UNIT ( ) );
#135 = DIRECTION ( 'NONE',  ( 1.000000000000000000, 0.0000000000000000000, 0.0000000000000000000 ) ) ;
#136 = ORIENTED_EDGE ( 'NONE', *, *, #51, .F. ) ;
#137 = CARTESIAN_POINT ( 'NONE',  ( 4.996003610813200500E-016, 2.442490654175340100E-015, -0.3110770411054399900 ) ) ;
#138 = DIRECTION ( 'NONE',  ( 0.0000000000000000000, 0.0000000000000000000, 1.000000000000000000 ) ) ;
#139 = CARTESIAN_POINT ( 'NONE',  ( -4.262613345891277400, -4.287602561648462500, 0.1062824040681175200 ) ) ;
#140 = ADVANCED_FACE ( 'NONE', ( #157 ), #214, .F. ) ;
#141 = APPROVAL_STATUS ( 'not_yet_approved' ) ;
#142 = PERSON_AND_ORGANIZATION ( #173, #99 ) ;
#143 = CIRCLE ( 'NONE', #213, 12.69999999999999900 ) ;
#144 = VECTOR ( 'NONE', #138, 1000.000000000000000 ) ;
#145 = ADVANCED_FACE ( 'NONE', ( #38 ), #150, .T. ) ;
#146 = PERSON_AND_ORGANIZATION ( #173, #99 ) ;
#147 = ORIENTED_EDGE ( 'NONE', *, *, #62, .T. ) ;
#148 = CALENDAR_DATE ( 2019, 15, 1 ) ;
#149 = DIRECTION ( 'NONE',  ( 1.000000000000000000, -2.240445334451200100E-016, -4.200549787686929800E-016 ) ) ;
#150 = CYLINDRICAL_SURFACE ( 'NONE', #177, 12.69999999999999900 ) ;
#151 = DIRECTION ( 'NONE',  ( 0.0000000000000000000, 0.0000000000000000000, 1.000000000000000000 ) ) ;
#152 = CARTESIAN_POINT ( 'NONE',  ( -4.262613345891273800, 4.287602561648495400, 0.1062824040681164500 ) ) ;
#153 = CARTESIAN_POINT ( 'NONE',  ( 4.996003610813200500E-016, 2.442490654175340100E-015, 3.700000000000000200 ) ) ;
#154 = PERSON_AND_ORGANIZATION ( #173, #99 ) ;
#155 = DIRECTION ( 'NONE',  ( 1.000000000000000000, 0.0000000000000000000, 0.0000000000000000000 ) ) ;
#156 = CC_DESIGN_APPROVAL ( #121, ( #30 ) ) ;
#157 = FACE_OUTER_BOUND ( 'NONE', #212, .T. ) ;
#158 = CC_DESIGN_APPROVAL ( #170, ( #129 ) ) ;
#159 = CALENDAR_DATE ( 2019, 15, 1 ) ;
#160 = CIRCLE ( 'NONE', #86, 12.69999999999999900 ) ;
#161 = AXIS2_PLACEMENT_3D ( 'NONE', #41, #187, #59 ) ;
#162 = APPROVAL_DATE_TIME ( #52, #6 ) ;
#163 = CARTESIAN_POINT ( 'NONE',  ( 1.401296293863138100E-013, 12.85227591330464000, -0.3185861474268580900 ) ) ;
#164 = CC_DESIGN_PERSON_AND_ORGANIZATION_ASSIGNMENT ( #63, #210, ( #217 ) ) ;
#165 = CARTESIAN_POINT ( 'NONE',  ( 12.69999999999999900, 2.442490654175340100E-015, 3.700000000000000200 ) ) ;
#166 = ORIENTED_EDGE ( 'NONE', *, *, #103, .T. ) ;
#167 =( LENGTH_UNIT ( ) NAMED_UNIT ( * ) SI_UNIT ( .MILLI., .METRE. ) );
#168 = DIRECTION ( 'NONE',  ( 2.240445334451199600E-016, 1.000000000000000000, 0.0000000000000000000 ) ) ;
#169 = DIRECTION ( 'NONE',  ( 1.000000000000000000, 0.0000000000000000000, 0.0000000000000000000 ) ) ;
#170 = APPROVAL ( #27, 'UNSPECIFIED' ) ;
#171 = CIRCLE ( 'NONE', #179, 259.3999999999999800 ) ;
#172 = APPROVAL_ROLE ( '' ) ;
#173 = PERSON ( 'UNSPECIFIED', 'UNSPECIFIED', 'UNSPECIFIED', ('UNSPECIFIED'), ('UNSPECIFIED'), ('UNSPECIFIED') ) ;
#174 = CC_DESIGN_APPROVAL ( #6, ( #217 ) ) ;
#175 = LOCAL_TIME ( 13, 1, 18.00000000000000000, #211 ) ;
#176 = FACE_OUTER_BOUND ( 'NONE', #53, .T. ) ;
#177 = AXIS2_PLACEMENT_3D ( 'NONE', #205, #80, #71 ) ;
#178 = CARTESIAN_POINT ( 'NONE',  ( 12.78137319883065400, -4.287602561648467900, -0.2086669922542321900 ) ) ;
#179 = AXIS2_PLACEMENT_3D ( 'NONE', #4, #149, #168 ) ;
#180 = APPROVAL_PERSON_ORGANIZATION ( #233, #121, #14 ) ;
#181 = CIRCLE ( 'NONE', #133, 12.69999999999999900 ) ;
#182 = AXIS2_PLACEMENT_3D ( 'NONE', #153, #42, #169 ) ;
#183 = CARTESIAN_POINT ( 'NONE',  ( 4.262613345891418600, -4.287602561648465200, 0.1062824040681131800 ) ) ;
#184 = CARTESIAN_POINT ( 'NONE',  ( 6.591949208711867000E-014, -12.85227591330461100, -0.3185861474268563700 ) ) ;
#185 = CARTESIAN_POINT ( 'NONE',  ( 1.343706650649052400E-013, -12.85227591330461100, -0.3185861474268580900 ) ) ;
#186 = CARTESIAN_POINT ( 'NONE',  ( 12.69999999999999900, 2.442490654175340100E-015, -0.3110770411054399900 ) ) ;
#187 = DIRECTION ( 'NONE',  ( -0.0000000000000000000, -0.0000000000000000000, -1.000000000000000000 ) ) ;
#188 = CARTESIAN_POINT ( 'NONE',  ( -12.78137319883063800, 4.287602561648498100, -0.2086669922542200900 ) ) ;
#189 = DIRECTION ( 'NONE',  ( 0.0000000000000000000, 0.0000000000000000000, 1.000000000000000000 ) ) ;
#190 = ADVANCED_FACE ( 'NONE', ( #55 ), #197, .T. ) ;
#191 = PERSON_AND_ORGANIZATION ( #173, #99 ) ;
#192 = ORIENTED_EDGE ( 'NONE', *, *, #1, .F. ) ;
#193 = ADVANCED_FACE ( 'NONE', ( #102 ), #95, .T. ) ;
#194 = APPROVAL_STATUS ( 'not_yet_approved' ) ;
#195 = PERSON_AND_ORGANIZATION ( #173, #99 ) ;
#196 = AXIS2_PLACEMENT_3D ( 'NONE', #73, #198, #69 ) ;
#197 = CYLINDRICAL_SURFACE ( 'NONE', #72, 12.69999999999999900 ) ;
#198 = DIRECTION ( 'NONE',  ( 0.0000000000000000000, 0.0000000000000000000, 1.000000000000000000 ) ) ;
#199 = CARTESIAN_POINT ( 'NONE',  ( 4.255634515394234500, -12.85227591330461100, -0.3185861474268598100 ) ) ;
#200 = AXIS2_PLACEMENT_3D ( 'NONE', #203, #26, #155 ) ;
#201 = ORIENTED_EDGE ( 'NONE', *, *, #98, .F. ) ;
#202 = DIRECTION ( 'NONE',  ( 0.0000000000000000000, 0.0000000000000000000, 1.000000000000000000 ) ) ;
#203 = CARTESIAN_POINT ( 'NONE',  ( 0.0000000000000000000, 0.0000000000000000000, 0.0000000000000000000 ) ) ;
#204 = LOCAL_TIME ( 13, 1, 18.00000000000000000, #2 ) ;
#205 = CARTESIAN_POINT ( 'NONE',  ( 4.996003610813200500E-016, 2.442490654175340100E-015, -0.3110770411054399900 ) ) ;
#206 = MECHANICAL_CONTEXT ( 'NONE', #112, 'mechanical' ) ;
#207 = CIRCLE ( 'NONE', #196, 12.69999999999999900 ) ;
#208 = PERSON_AND_ORGANIZATION_ROLE ( 'creator' ) ;
#209 = DATE_TIME_ROLE ( 'creation_date' ) ;
#210 = PERSON_AND_ORGANIZATION_ROLE ( 'creator' ) ;
#211 = COORDINATED_UNIVERSAL_TIME_OFFSET ( 2, 0, .AHEAD. ) ;
#212 = EDGE_LOOP ( 'NONE', ( #91, #220, #229 ) ) ;
#213 = AXIS2_PLACEMENT_3D ( 'NONE', #9, #151, #135 ) ;
#214 =( BOUNDED_SURFACE ( )  B_SPLINE_SURFACE ( 3, 3, ( 
 ( #120, #24, #100, #224 ),
 ( #188, #226, #152, #43 ),
 ( #114, #119, #139, #56 ),
 ( #58, #45, #79, #184 ) ),
 .UNSPECIFIED., .F., .F., .F. ) 
 B_SPLINE_SURFACE_WITH_KNOTS ( ( 4, 4 ),
 ( 4, 4 ),
 ( 0.0000000000000000000, 1.000000000000000000 ),
 ( 0.0000000000000000000, 1.000000000000000000 ),
 .UNSPECIFIED. ) 
 GEOMETRIC_REPRESENTATION_ITEM ( )  RATIONAL_B_SPLINE_SURFACE ( (
 ( 1.000000000000000000, 0.9997976945634113900, 0.9997976945634113900, 1.000000000000000000),
 ( 0.9991812229570113900, 0.9989790831634699500, 0.9989790831634699500, 0.9991812229570113900),
 ( 0.9991812229570113900, 0.9989790831634699500, 0.9989790831634699500, 0.9991812229570113900),
 ( 1.000000000000000000, 0.9997976945634113900, 0.9997976945634113900, 1.000000000000000000) ) ) 
 REPRESENTATION_ITEM ( '' )  SURFACE ( )  );
#215 = VERTEX_POINT ( 'NONE', #78 ) ;
#216 = DATE_AND_TIME ( #20, #16 ) ;
#217 = PRODUCT_DEFINITION_FORMATION_WITH_SPECIFIED_SOURCE ( 'ANY', '', #115, .NOT_KNOWN. ) ;
#218 = CARTESIAN_POINT ( 'NONE',  ( 12.76044729496891600, -12.85227591330461500, -0.6330199026920021500 ) ) ;
#219 = CARTESIAN_POINT ( 'NONE',  ( 4.262613345891421300, 4.287602561648492700, 0.1062824040681123200 ) ) ;
#220 = ORIENTED_EDGE ( 'NONE', *, *, #1, .T. ) ;
#221 = CARTESIAN_POINT ( 'NONE',  ( 8.509977623790435400, -12.85227591330461100, -0.4234186073584906800 ) ) ;
#222 =( NAMED_UNIT ( * ) PLANE_ANGLE_UNIT ( ) SI_UNIT ( $, .RADIAN. ) );
#223 = CARTESIAN_POINT ( 'NONE',  ( -12.69999999999999900, 3.997792089092478900E-015, -0.3110770411054399900 ) ) ;
#224 = CARTESIAN_POINT ( 'NONE',  ( 7.285838599102589800E-014, 12.85227591330464000, -0.3185861474268564800 ) ) ;
#225 =( GEOMETRIC_REPRESENTATION_CONTEXT ( 3 ) GLOBAL_UNCERTAINTY_ASSIGNED_CONTEXT ( ( #106 ) ) GLOBAL_UNIT_ASSIGNED_CONTEXT ( ( #167, #222, #134 ) ) REPRESENTATION_CONTEXT ( 'NONE', 'WORKASPACE' ) );
#226 = CARTESIAN_POINT ( 'NONE',  ( -8.523933167001699100, 4.287602561648496300, 0.001278029004731569500 ) ) ;
#227 = DIRECTION ( 'NONE',  ( 0.0000000000000000000, 0.0000000000000000000, 1.000000000000000000 ) ) ;
#228 = LOCAL_TIME ( 13, 1, 18.00000000000000000, #90 ) ;
#229 = ORIENTED_EDGE ( 'NONE', *, *, #67, .F. ) ;
#230 = DESIGN_CONTEXT ( 'detailed design', #123, 'design' ) ;
#231 = DATE_TIME_ROLE ( 'classification_date' ) ;
#232 = VERTEX_POINT ( 'NONE', #93 ) ;
#233 = PERSON_AND_ORGANIZATION ( #173, #99 ) ;
#234 = VECTOR ( 'NONE', #189, 1000.000000000000000 ) ;
#235 = CC_DESIGN_DATE_AND_TIME_ASSIGNMENT ( #47, #231, ( #30 ) ) ;
ENDSEC;
END-ISO-10303-21;
