ISO-10303-21;
HEADER;
FILE_DESCRIPTION (( 'STEP AP203' ),
    '1' );
FILE_NAME ('112-0243E BK7 pl-cv 25.4 F-400.STEP',
    '2019-01-15T10:09:52',
    ( '' ),
    ( '' ),
    'SwSTEP 2.0',
    'SolidWorks 2017',
    '' );
FILE_SCHEMA (( 'CONFIG_CONTROL_DESIGN' ));
ENDSEC;

DATA;
#1 = ORIENTED_EDGE ( 'NONE', *, *, #55, .T. ) ;
#2 = SECURITY_CLASSIFICATION_LEVEL ( 'unclassified' ) ;
#3 =( LENGTH_UNIT ( ) NAMED_UNIT ( * ) SI_UNIT ( .MILLI., .METRE. ) );
#4 = CIRCLE ( 'NONE', #156, 12.69999999999999900 ) ;
#5 = CC_DESIGN_APPROVAL ( #117, ( #72 ) ) ;
#6 = DIRECTION ( 'NONE',  ( 0.0000000000000000000, 0.0000000000000000000, 1.000000000000000000 ) ) ;
#7 = VERTEX_POINT ( 'NONE', #29 ) ;
#8 = CARTESIAN_POINT ( 'NONE',  ( 12.78429113032299500, -4.289559357414307600, -0.2609765060221956900 ) ) ;
#9 = CC_DESIGN_PERSON_AND_ORGANIZATION_ASSIGNMENT ( #134, #70, ( #25 ) ) ;
#10 = CARTESIAN_POINT ( 'NONE',  ( -8.527580773337486900, 4.289559357414342200, 0.001614117807636138900 ) ) ;
#11 = CALENDAR_DATE ( 2019, 15, 1 ) ;
#12 = CC_DESIGN_PERSON_AND_ORGANIZATION_ASSIGNMENT ( #31, #110, ( #72 ) ) ;
#13 = APPROVAL_STATUS ( 'not_yet_approved' ) ;
#14 = DIRECTION ( 'NONE',  ( 1.000000000000000000, 0.0000000000000000000, 0.0000000000000000000 ) ) ;
#15 = EDGE_LOOP ( 'NONE', ( #102, #128 ) ) ;
#16 = PERSON_AND_ORGANIZATION_ROLE ( 'creator' ) ;
#17 = DIRECTION ( 'NONE',  ( 0.0000000000000000000, 0.0000000000000000000, 1.000000000000000000 ) ) ;
#18 = DIRECTION ( 'NONE',  ( -0.0000000000000000000, -0.0000000000000000000, -1.000000000000000000 ) ) ;
#19 = EDGE_CURVE ( 'NONE', #51, #7, #4, .T. ) ;
#20 = CIRCLE ( 'NONE', #170, 12.69999999999999900 ) ;
#21 = ADVANCED_FACE ( 'NONE', ( #87 ), #135, .T. ) ;
#22 =( BOUNDED_SURFACE ( )  B_SPLINE_SURFACE ( 3, 3, ( 
 ( #205, #71, #172, #122 ),
 ( #104, #10, #200, #144 ),
 ( #186, #139, #28, #141 ),
 ( #105, #235, #162, #182 ) ),
 .UNSPECIFIED., .F., .F., .F. ) 
 B_SPLINE_SURFACE_WITH_KNOTS ( ( 4, 4 ),
 ( 4, 4 ),
 ( 0.0000000000000000000, 1.000000000000000000 ),
 ( 0.0000000000000000000, 1.000000000000000000 ),
 .UNSPECIFIED. ) 
 GEOMETRIC_REPRESENTATION_ITEM ( )  RATIONAL_B_SPLINE_SURFACE ( (
 ( 1.000000000000000000, 0.9996837033075151000, 0.9996837033075151000, 1.000000000000000000),
 ( 0.9987199850999829400, 0.9984040932719772100, 0.9984040932719772100, 0.9987199850999829400),
 ( 0.9987199850999829400, 0.9984040932719772100, 0.9984040932719772100, 0.9987199850999829400),
 ( 1.000000000000000000, 0.9996837033075151000, 0.9996837033075151000, 1.000000000000000000) ) ) 
 REPRESENTATION_ITEM ( '' )  SURFACE ( )  );
#23 = ADVANCED_FACE ( 'NONE', ( #43 ), #225, .T. ) ;
#24 = FACE_OUTER_BOUND ( 'NONE', #233, .T. ) ;
#25 = PRODUCT_DEFINITION_FORMATION_WITH_SPECIFIED_SOURCE ( 'ANY', '', #67, .NOT_KNOWN. ) ;
#26 = CC_DESIGN_DATE_AND_TIME_ASSIGNMENT ( #224, #171, ( #72 ) ) ;
#27 = AXIS2_PLACEMENT_3D ( 'NONE', #127, #18, #125 ) ;
#28 = CARTESIAN_POINT ( 'NONE',  ( -4.264802093766077100, -4.289559357414312900, 0.1329717517002437200 ) ) ;
#29 = CARTESIAN_POINT ( 'NONE',  ( -12.69999999999999900, 3.997792089092478900E-015, -0.3890152599336410000 ) ) ;
#30 = SHAPE_DEFINITION_REPRESENTATION ( #220, #158 ) ;
#31 = PERSON_AND_ORGANIZATION ( #143, #164 ) ;
#32 = ORIENTED_EDGE ( 'NONE', *, *, #47, .T. ) ;
#33 = AXIS2_PLACEMENT_3D ( 'NONE', #57, #165, #14 ) ;
#34 = COORDINATED_UNIVERSAL_TIME_OFFSET ( 2, 0, .AHEAD. ) ;
#35 = APPROVAL_ROLE ( '' ) ;
#36 = CARTESIAN_POINT ( 'NONE',  ( 4.996003610813200500E-016, 2.442490654175340100E-015, 3.600000000000001000 ) ) ;
#37 = CALENDAR_DATE ( 2019, 15, 1 ) ;
#38 = ORIENTED_EDGE ( 'NONE', *, *, #19, .T. ) ;
#39 = DIRECTION ( 'NONE',  ( 1.000000000000000000, 0.0000000000000000000, 0.0000000000000000000 ) ) ;
#40 =( NAMED_UNIT ( * ) SI_UNIT ( $, .STERADIAN. ) SOLID_ANGLE_UNIT ( ) );
#41 = EDGE_CURVE ( 'NONE', #7, #75, #142, .T. ) ;
#42 = PERSON_AND_ORGANIZATION ( #143, #164 ) ;
#43 = FACE_OUTER_BOUND ( 'NONE', #85, .T. ) ;
#44 = CC_DESIGN_PERSON_AND_ORGANIZATION_ASSIGNMENT ( #126, #215, ( #25 ) ) ;
#45 =( GEOMETRIC_REPRESENTATION_CONTEXT ( 3 ) GLOBAL_UNCERTAINTY_ASSIGNED_CONTEXT ( ( #218 ) ) GLOBAL_UNIT_ASSIGNED_CONTEXT ( ( #3, #201, #40 ) ) REPRESENTATION_CONTEXT ( 'NONE', 'WORKASPACE' ) );
#46 = APPROVAL_DATE_TIME ( #232, #96 ) ;
#47 = EDGE_CURVE ( 'NONE', #7, #160, #222, .T. ) ;
#48 = ORIENTED_EDGE ( 'NONE', *, *, #229, .T. ) ;
#49 = CARTESIAN_POINT ( 'NONE',  ( -8.215000346024450100E-014, 12.85220597256700800, -0.3984046376303007600 ) ) ;
#50 = CARTESIAN_POINT ( 'NONE',  ( 12.75157344389934400, 12.85220597256701100, -0.7913446990098784700 ) ) ;
#51 = VERTEX_POINT ( 'NONE', #166 ) ;
#52 = CC_DESIGN_APPROVAL ( #123, ( #89 ) ) ;
#53 = EDGE_LOOP ( 'NONE', ( #153, #198, #150 ) ) ;
#54 = DIRECTION ( 'NONE',  ( 0.0000000000000000000, 0.0000000000000000000, 1.000000000000000000 ) ) ;
#55 = EDGE_CURVE ( 'NONE', #98, #217, #91, .T. ) ;
#56 =( BOUNDED_SURFACE ( )  B_SPLINE_SURFACE ( 3, 3, ( 
 ( #49, #63, #155, #50 ),
 ( #226, #175, #76, #64 ),
 ( #81, #115, #210, #8 ),
 ( #223, #97, #114, #136 ) ),
 .UNSPECIFIED., .F., .F., .T. ) 
 B_SPLINE_SURFACE_WITH_KNOTS ( ( 4, 4 ),
 ( 4, 4 ),
 ( 0.0000000000000000000, 1.000000000000000000 ),
 ( 0.0000000000000000000, 1.000000000000000000 ),
 .UNSPECIFIED. ) 
 GEOMETRIC_REPRESENTATION_ITEM ( )  RATIONAL_B_SPLINE_SURFACE ( (
 ( 1.000000000000000000, 0.9996837033075151000, 0.9996837033075151000, 1.000000000000000000),
 ( 0.9987199850999829400, 0.9984040932719772100, 0.9984040932719772100, 0.9987199850999829400),
 ( 0.9987199850999829400, 0.9984040932719772100, 0.9984040932719772100, 0.9987199850999829400),
 ( 1.000000000000000000, 0.9996837033075151000, 0.9996837033075151000, 1.000000000000000000) ) ) 
 REPRESENTATION_ITEM ( '' )  SURFACE ( )  );
#57 = CARTESIAN_POINT ( 'NONE',  ( 0.0000000000000000000, 0.0000000000000000000, 0.0000000000000000000 ) ) ;
#58 = APPROVAL_STATUS ( 'not_yet_approved' ) ;
#59 = CC_DESIGN_PERSON_AND_ORGANIZATION_ASSIGNMENT ( #42, #204, ( #67 ) ) ;
#60 = MECHANICAL_CONTEXT ( 'NONE', #214, 'mechanical' ) ;
#61 = CC_DESIGN_PERSON_AND_ORGANIZATION_ASSIGNMENT ( #74, #16, ( #89 ) ) ;
#62 = ORIENTED_EDGE ( 'NONE', *, *, #47, .F. ) ;
#63 = CARTESIAN_POINT ( 'NONE',  ( 4.253887569359376300, 12.85220597256701100, -0.3984046376302997100 ) ) ;
#64 = CARTESIAN_POINT ( 'NONE',  ( 12.78429113032299300, 4.289559357414347600, -0.2609765060221943000 ) ) ;
#65 = ORIENTED_EDGE ( 'NONE', *, *, #197, .T. ) ;
#66 = AXIS2_PLACEMENT_3D ( 'NONE', #212, #101, #69 ) ;
#67 = PRODUCT ( '112-0243E BK7 pl-cv 25.4 F-400', '112-0243E BK7 pl-cv 25.4 F-400', '', ( #60 ) ) ;
#68 = DIRECTION ( 'NONE',  ( 0.0000000000000000000, 0.0000000000000000000, 1.000000000000000000 ) ) ;
#69 = DIRECTION ( 'NONE',  ( 1.000000000000000000, 0.0000000000000000000, 0.0000000000000000000 ) ) ;
#70 = PERSON_AND_ORGANIZATION_ROLE ( 'creator' ) ;
#71 = CARTESIAN_POINT ( 'NONE',  ( -8.505756902866281200, 12.85220597256700800, -0.5294260997452484600 ) ) ;
#72 = SECURITY_CLASSIFICATION ( '', '', #2 ) ;
#73 = EDGE_CURVE ( 'NONE', #160, #217, #20, .T. ) ;
#74 = PERSON_AND_ORGANIZATION ( #143, #164 ) ;
#75 = VERTEX_POINT ( 'NONE', #190 ) ;
#76 = CARTESIAN_POINT ( 'NONE',  ( 8.527580773337462000, 4.289559357414346700, 0.001614117807615430700 ) ) ;
#77 = ADVANCED_FACE ( 'NONE', ( #180 ), #22, .F. ) ;
#78 = CARTESIAN_POINT ( 'NONE',  ( 12.69999999999999900, 2.442490654175340100E-015, -0.3890152599336410000 ) ) ;
#79 = DATE_AND_TIME ( #159, #208 ) ;
#80 = ADVANCED_FACE ( 'NONE', ( #173 ), #185, .T. ) ;
#81 = CARTESIAN_POINT ( 'NONE',  ( -7.747751104301295200E-014, -4.289559357414311200, 0.1329717517002147500 ) ) ;
#82 = CARTESIAN_POINT ( 'NONE',  ( 4.996003610813200500E-016, 2.442490654175340100E-015, -0.3890152599336410000 ) ) ;
#83 = CARTESIAN_POINT ( 'NONE',  ( 0.0000000000000000000, 26.11199999999999800, 3.600000000000000500 ) ) ;
#84 = LOCAL_TIME ( 12, 9, 52.00000000000000000, #120 ) ;
#85 = EDGE_LOOP ( 'NONE', ( #62, #95, #65, #1, #48 ) ) ;
#86 = EDGE_CURVE ( 'NONE', #51, #75, #113, .T. ) ;
#87 = FACE_OUTER_BOUND ( 'NONE', #209, .T. ) ;
#88 = DATE_TIME_ROLE ( 'creation_date' ) ;
#89 = PRODUCT_DEFINITION ( 'UNKNOWN', '', #25, #129 ) ;
#90 = COORDINATED_UNIVERSAL_TIME_OFFSET ( 2, 0, .AHEAD. ) ;
#91 = LINE ( 'NONE', #121, #167 ) ;
#92 = AXIS2_PLACEMENT_3D ( 'NONE', #192, #6, #132 ) ;
#93 = APPROVAL_ROLE ( '' ) ;
#94 = APPROVAL_PERSON_ORGANIZATION ( #130, #123, #93 ) ;
#95 = ORIENTED_EDGE ( 'NONE', *, *, #41, .T. ) ;
#96 = APPROVAL ( #58, 'UNSPECIFIED' ) ;
#97 = CARTESIAN_POINT ( 'NONE',  ( 4.253887569359384300, -12.85220597256697200, -0.3984046376302997100 ) ) ;
#98 = VERTEX_POINT ( 'NONE', #78 ) ;
#99 = DIRECTION ( 'NONE',  ( 0.0000000000000000000, 0.0000000000000000000, 1.000000000000000000 ) ) ;
#100 = DIRECTION ( 'NONE',  ( 1.000000000000000000, 2.800826601236830100E-016, 2.420484202686870100E-016 ) ) ;
#101 = DIRECTION ( 'NONE',  ( 0.0000000000000000000, 0.0000000000000000000, 1.000000000000000000 ) ) ;
#102 = ORIENTED_EDGE ( 'NONE', *, *, #229, .F. ) ;
#103 = DIRECTION ( 'NONE',  ( 0.0000000000000000000, 0.0000000000000000000, 1.000000000000000000 ) ) ;
#104 = CARTESIAN_POINT ( 'NONE',  ( -12.78429113032292500, 4.289559357414341400, -0.2609765060221654300 ) ) ;
#105 = CARTESIAN_POINT ( 'NONE',  ( -12.75157344389927500, -12.85220597256697800, -0.7913446990098493800 ) ) ;
#106 = CIRCLE ( 'NONE', #27, 12.69999999999999900 ) ;
#107 = CC_DESIGN_SECURITY_CLASSIFICATION ( #72, ( #25 ) ) ;
#108 = DATE_AND_TIME ( #11, #119 ) ;
#109 = ORIENTED_EDGE ( 'NONE', *, *, #73, .T. ) ;
#110 = PERSON_AND_ORGANIZATION_ROLE ( 'classification_officer' ) ;
#111 = APPROVAL_ROLE ( '' ) ;
#112 = AXIS2_PLACEMENT_3D ( 'NONE', #195, #100, #177 ) ;
#113 = CIRCLE ( 'NONE', #112, 207.5000000000000300 ) ;
#114 = CARTESIAN_POINT ( 'NONE',  ( 8.505756902866261600, -12.85220597256697200, -0.5294260997452693300 ) ) ;
#115 = CARTESIAN_POINT ( 'NONE',  ( 4.264802093765962500, -4.289559357414310300, 0.1329717517002157500 ) ) ;
#116 = CALENDAR_DATE ( 2019, 15, 1 ) ;
#117 = APPROVAL ( #148, 'UNSPECIFIED' ) ;
#118 = ADVANCED_FACE ( 'NONE', ( #24 ), #56, .F. ) ;
#119 = LOCAL_TIME ( 12, 9, 52.00000000000000000, #228 ) ;
#120 = COORDINATED_UNIVERSAL_TIME_OFFSET ( 2, 0, .AHEAD. ) ;
#121 = CARTESIAN_POINT ( 'NONE',  ( 12.69999999999999900, 2.442490654175340100E-015, -0.3890152599336410000 ) ) ;
#122 = CARTESIAN_POINT ( 'NONE',  ( -1.318389841742373400E-013, 12.85220597256700800, -0.3984046376302699000 ) ) ;
#123 = APPROVAL ( #13, 'UNSPECIFIED' ) ;
#124 = CLOSED_SHELL ( 'NONE', ( #77, #21, #118, #23, #80 ) ) ;
#125 = DIRECTION ( 'NONE',  ( 1.000000000000000000, 0.0000000000000000000, 0.0000000000000000000 ) ) ;
#126 = PERSON_AND_ORGANIZATION ( #143, #164 ) ;
#127 = CARTESIAN_POINT ( 'NONE',  ( 4.996003610813200500E-016, 2.442490654175340100E-015, 3.600000000000001000 ) ) ;
#128 = ORIENTED_EDGE ( 'NONE', *, *, #73, .F. ) ;
#129 = DESIGN_CONTEXT ( 'detailed design', #151, 'design' ) ;
#130 = PERSON_AND_ORGANIZATION ( #143, #164 ) ;
#131 = ORIENTED_EDGE ( 'NONE', *, *, #147, .T. ) ;
#132 = DIRECTION ( 'NONE',  ( 1.000000000000000000, 0.0000000000000000000, 0.0000000000000000000 ) ) ;
#133 = DIRECTION ( 'NONE',  ( 1.000000000000000000, 0.0000000000000000000, 0.0000000000000000000 ) ) ;
#134 = PERSON_AND_ORGANIZATION ( #143, #164 ) ;
#135 = CYLINDRICAL_SURFACE ( 'NONE', #178, 12.69999999999999900 ) ;
#136 = CARTESIAN_POINT ( 'NONE',  ( 12.75157344389935200, -12.85220597256697200, -0.7913446990098784700 ) ) ;
#137 = ORIENTED_EDGE ( 'NONE', *, *, #197, .F. ) ;
#138 = DIRECTION ( 'NONE',  ( 1.000000000000000000, 0.0000000000000000000, 0.0000000000000000000 ) ) ;
#139 = CARTESIAN_POINT ( 'NONE',  ( -8.527580773337485100, -4.289559357414313800, 0.001614117807634837700 ) ) ;
#140 = LOCAL_TIME ( 12, 9, 52.00000000000000000, #90 ) ;
#141 = CARTESIAN_POINT ( 'NONE',  ( -1.283695372222837800E-013, -4.289559357414312000, 0.1329717517002457800 ) ) ;
#142 = CIRCLE ( 'NONE', #66, 12.69999999999999900 ) ;
#143 = PERSON ( 'UNSPECIFIED', 'UNSPECIFIED', 'UNSPECIFIED', ('UNSPECIFIED'), ('UNSPECIFIED'), ('UNSPECIFIED') ) ;
#144 = CARTESIAN_POINT ( 'NONE',  ( -1.301042606982605600E-013, 4.289559357414343100, 0.1329717517002470000 ) ) ;
#145 = ORIENTED_EDGE ( 'NONE', *, *, #55, .F. ) ;
#146 = APPLICATION_PROTOCOL_DEFINITION ( 'international standard', 'config_control_design', 1994, #214 ) ;
#147 = EDGE_CURVE ( 'NONE', #98, #51, #202, .T. ) ;
#148 = APPROVAL_STATUS ( 'not_yet_approved' ) ;
#149 = APPROVAL_DATE_TIME ( #221, #123 ) ;
#150 = ORIENTED_EDGE ( 'NONE', *, *, #41, .F. ) ;
#151 = APPLICATION_CONTEXT ( 'configuration controlled 3d designs of mechanical parts and assemblies' ) ;
#152 = APPLICATION_PROTOCOL_DEFINITION ( 'international standard', 'config_control_design', 1994, #151 ) ;
#153 = ORIENTED_EDGE ( 'NONE', *, *, #19, .F. ) ;
#154 = CARTESIAN_POINT ( 'NONE',  ( -12.69999999999999900, 3.997792089092478900E-015, 3.600000000000001000 ) ) ;
#155 = CARTESIAN_POINT ( 'NONE',  ( 8.505756902866254500, 12.85220597256701100, -0.5294260997452693300 ) ) ;
#156 = AXIS2_PLACEMENT_3D ( 'NONE', #82, #103, #161 ) ;
#157 = CARTESIAN_POINT ( 'NONE',  ( 12.69999999999999900, 2.442490654175340100E-015, 3.600000000000001000 ) ) ;
#158 = ADVANCED_BREP_SHAPE_REPRESENTATION ( '112-0243E BK7 pl-cv 25.4 F-400', ( #199, #33 ), #45 ) ;
#159 = CALENDAR_DATE ( 2019, 15, 1 ) ;
#160 = VERTEX_POINT ( 'NONE', #154 ) ;
#161 = DIRECTION ( 'NONE',  ( 1.000000000000000000, 0.0000000000000000000, 0.0000000000000000000 ) ) ;
#162 = CARTESIAN_POINT ( 'NONE',  ( -4.253887569359492600, -12.85220597256697600, -0.3984046376302719000 ) ) ;
#163 = CARTESIAN_POINT ( 'NONE',  ( 4.996003610813200500E-016, 2.442490654175340100E-015, -0.3890152599336410000 ) ) ;
#164 = ORGANIZATION ( 'UNSPECIFIED', 'UNSPECIFIED', '' ) ;
#165 = DIRECTION ( 'NONE',  ( 0.0000000000000000000, 0.0000000000000000000, 1.000000000000000000 ) ) ;
#166 = CARTESIAN_POINT ( 'NONE',  ( -8.210964589059999100E-014, 12.70000000000003100, -0.3890152599336457200 ) ) ;
#167 = VECTOR ( 'NONE', #207, 1000.000000000000000 ) ;
#168 = DIRECTION ( 'NONE',  ( -0.0000000000000000000, -0.0000000000000000000, -1.000000000000000000 ) ) ;
#169 = DIRECTION ( 'NONE',  ( 1.000000000000000000, 0.0000000000000000000, -0.0000000000000000000 ) ) ;
#170 = AXIS2_PLACEMENT_3D ( 'NONE', #36, #168, #39 ) ;
#171 = DATE_TIME_ROLE ( 'classification_date' ) ;
#172 = CARTESIAN_POINT ( 'NONE',  ( -4.253887569359499700, 12.85220597256700800, -0.3984046376302719000 ) ) ;
#173 = FACE_OUTER_BOUND ( 'NONE', #15, .T. ) ;
#174 = CARTESIAN_POINT ( 'NONE',  ( 4.996003610813200500E-016, 2.442490654175340100E-015, -0.3890152599336410000 ) ) ;
#175 = CARTESIAN_POINT ( 'NONE',  ( 4.264802093765959900, 4.289559357414345800, 0.1329717517002171600 ) ) ;
#176 = APPROVAL_PERSON_ORGANIZATION ( #188, #96, #35 ) ;
#177 = DIRECTION ( 'NONE',  ( -2.800826601236831600E-016, 1.000000000000000000, 5.350472407832079200E-016 ) ) ;
#178 = AXIS2_PLACEMENT_3D ( 'NONE', #163, #54, #138 ) ;
#179 = COORDINATED_UNIVERSAL_TIME_OFFSET ( 2, 0, .AHEAD. ) ;
#180 = FACE_OUTER_BOUND ( 'NONE', #53, .T. ) ;
#181 = DIRECTION ( 'NONE',  ( 0.0000000000000000000, 0.0000000000000000000, 1.000000000000000000 ) ) ;
#182 = CARTESIAN_POINT ( 'NONE',  ( -1.249000902703301100E-013, -12.85220597256697600, -0.3984046376302699000 ) ) ;
#183 = PERSON_AND_ORGANIZATION ( #143, #164 ) ;
#184 = ORIENTED_EDGE ( 'NONE', *, *, #86, .F. ) ;
#185 = PLANE ( 'NONE',  #194 ) ;
#186 = CARTESIAN_POINT ( 'NONE',  ( -12.78429113032292400, -4.289559357414314700, -0.2609765060221667700 ) ) ;
#187 = CIRCLE ( 'NONE', #206, 12.69999999999999900 ) ;
#188 = PERSON_AND_ORGANIZATION ( #143, #164 ) ;
#189 = ORIENTED_EDGE ( 'NONE', *, *, #147, .F. ) ;
#190 = CARTESIAN_POINT ( 'NONE',  ( -7.499554632345841900E-014, -12.70000000000002800, -0.3890152599336457200 ) ) ;
#191 = AXIS2_PLACEMENT_3D ( 'NONE', #213, #181, #234 ) ;
#192 = CARTESIAN_POINT ( 'NONE',  ( 4.996003610813200500E-016, 2.442490654175340100E-015, -0.3890152599336410000 ) ) ;
#193 = APPROVAL_PERSON_ORGANIZATION ( #183, #117, #111 ) ;
#194 = AXIS2_PLACEMENT_3D ( 'NONE', #83, #17, #169 ) ;
#195 = CARTESIAN_POINT ( 'NONE',  ( -2.842170943040400100E-014, 0.0000000000000000000, -207.5000000000000300 ) ) ;
#196 = CC_DESIGN_DATE_AND_TIME_ASSIGNMENT ( #79, #88, ( #89 ) ) ;
#197 = EDGE_CURVE ( 'NONE', #75, #98, #187, .T. ) ;
#198 = ORIENTED_EDGE ( 'NONE', *, *, #86, .T. ) ;
#199 = MANIFOLD_SOLID_BREP ( 'Imported1', #124 ) ;
#200 = CARTESIAN_POINT ( 'NONE',  ( -4.264802093766078900, 4.289559357414343100, 0.1329717517002449700 ) ) ;
#201 =( NAMED_UNIT ( * ) PLANE_ANGLE_UNIT ( ) SI_UNIT ( $, .RADIAN. ) );
#202 = CIRCLE ( 'NONE', #92, 12.69999999999999900 ) ;
#203 = VECTOR ( 'NONE', #68, 1000.000000000000000 ) ;
#204 = PERSON_AND_ORGANIZATION_ROLE ( 'design_owner' ) ;
#205 = CARTESIAN_POINT ( 'NONE',  ( -12.75157344389928200, 12.85220597256700400, -0.7913446990098493800 ) ) ;
#206 = AXIS2_PLACEMENT_3D ( 'NONE', #174, #99, #133 ) ;
#207 = DIRECTION ( 'NONE',  ( 0.0000000000000000000, 0.0000000000000000000, 1.000000000000000000 ) ) ;
#208 = LOCAL_TIME ( 12, 9, 52.00000000000000000, #179 ) ;
#209 = EDGE_LOOP ( 'NONE', ( #131, #38, #32, #109, #145 ) ) ;
#210 = CARTESIAN_POINT ( 'NONE',  ( 8.527580773337465600, -4.289559357414309400, 0.001614117807614021400 ) ) ;
#211 = LOCAL_TIME ( 12, 9, 52.00000000000000000, #34 ) ;
#212 = CARTESIAN_POINT ( 'NONE',  ( 4.996003610813200500E-016, 2.442490654175340100E-015, -0.3890152599336410000 ) ) ;
#213 = CARTESIAN_POINT ( 'NONE',  ( 4.996003610813200500E-016, 2.442490654175340100E-015, -0.3890152599336410000 ) ) ;
#214 = APPLICATION_CONTEXT ( 'configuration controlled 3d designs of mechanical parts and assemblies' ) ;
#215 = PERSON_AND_ORGANIZATION_ROLE ( 'design_supplier' ) ;
#216 = CALENDAR_DATE ( 2019, 15, 1 ) ;
#217 = VERTEX_POINT ( 'NONE', #157 ) ;
#218 = UNCERTAINTY_MEASURE_WITH_UNIT (LENGTH_MEASURE( 1.000000000000000100E-005 ), #3, 'distance_accuracy_value', 'NONE');
#219 = CC_DESIGN_APPROVAL ( #96, ( #25 ) ) ;
#220 = PRODUCT_DEFINITION_SHAPE ( 'NONE', 'NONE',  #89 ) ;
#221 = DATE_AND_TIME ( #116, #211 ) ;
#222 = LINE ( 'NONE', #231, #203 ) ;
#223 = CARTESIAN_POINT ( 'NONE',  ( -7.495064338573640000E-014, -12.85220597256697600, -0.3984046376303007600 ) ) ;
#224 = DATE_AND_TIME ( #37, #84 ) ;
#225 = CYLINDRICAL_SURFACE ( 'NONE', #191, 12.69999999999999900 ) ;
#226 = CARTESIAN_POINT ( 'NONE',  ( -7.988037343417901900E-014, 4.289559357414344000, 0.1329717517002161600 ) ) ;
#227 = PRODUCT_RELATED_PRODUCT_CATEGORY ( 'detail', '', ( #67 ) ) ;
#228 = COORDINATED_UNIVERSAL_TIME_OFFSET ( 2, 0, .AHEAD. ) ;
#229 = EDGE_CURVE ( 'NONE', #217, #160, #106, .T. ) ;
#230 = APPROVAL_DATE_TIME ( #108, #117 ) ;
#231 = CARTESIAN_POINT ( 'NONE',  ( -12.69999999999999900, 3.997792089092478900E-015, -0.3890152599336410000 ) ) ;
#232 = DATE_AND_TIME ( #216, #140 ) ;
#233 = EDGE_LOOP ( 'NONE', ( #184, #189, #137 ) ) ;
#234 = DIRECTION ( 'NONE',  ( 1.000000000000000000, 0.0000000000000000000, 0.0000000000000000000 ) ) ;
#235 = CARTESIAN_POINT ( 'NONE',  ( -8.505756902866274100, -12.85220597256697600, -0.5294260997452484600 ) ) ;
ENDSEC;
END-ISO-10303-21;
