ISO-10303-21;
HEADER;
FILE_DESCRIPTION (( 'STEP AP203' ),
    '1' );
FILE_NAME ('112-0239E BK7 pl-cv 25.4 F-300.STEP',
    '2019-01-15T08:59:37',
    ( '' ),
    ( '' ),
    'SwSTEP 2.0',
    'SolidWorks 2017',
    '' );
FILE_SCHEMA (( 'CONFIG_CONTROL_DESIGN' ));
ENDSEC;

DATA;
#1 = PERSON_AND_ORGANIZATION ( #92, #75 ) ;
#2 = VERTEX_POINT ( 'NONE', #229 ) ;
#3 = EDGE_CURVE ( 'NONE', #2, #233, #169, .T. ) ;
#4 = PERSON_AND_ORGANIZATION ( #92, #75 ) ;
#5 = AXIS2_PLACEMENT_3D ( 'NONE', #106, #30, #155 ) ;
#6 = ORIENTED_EDGE ( 'NONE', *, *, #3, .T. ) ;
#7 = CALENDAR_DATE ( 2019, 15, 1 ) ;
#8 = DIRECTION ( 'NONE',  ( 1.000000000000000000, 0.0000000000000000000, 0.0000000000000000000 ) ) ;
#9 = CARTESIAN_POINT ( 'NONE',  ( -8.535484892814642100, 4.293799312988603000, 0.002200023056765426300 ) ) ;
#10 = CARTESIAN_POINT ( 'NONE',  ( 4.996003610813200500E-016, 2.442490654175340100E-015, 3.100000000000000500 ) ) ;
#11 = CARTESIAN_POINT ( 'NONE',  ( -7.806255641895631900E-014, 12.85205454848682500, -0.5316773358184711000 ) ) ;
#12 = CC_DESIGN_SECURITY_CLASSIFICATION ( #167, ( #218 ) ) ;
#13 = DIRECTION ( 'NONE',  ( -0.0000000000000000000, -0.0000000000000000000, -1.000000000000000000 ) ) ;
#14 = CARTESIAN_POINT ( 'NONE',  ( 8.496619969957306400, -12.85205454848687300, -0.7063089341096044900 ) ) ;
#15 = CARTESIAN_POINT ( 'NONE',  ( -12.73237376492082300, -12.85205454848687400, -1.055277177792052200 ) ) ;
#16 = APPROVAL_ROLE ( '' ) ;
#17 = DIRECTION ( 'NONE',  ( 1.000000000000000000, 0.0000000000000000000, 0.0000000000000000000 ) ) ;
#18 = APPROVAL_DATE_TIME ( #119, #61 ) ;
#19 = CLOSED_SHELL ( 'NONE', ( #217, #49, #121, #50, #87 ) ) ;
#20 = SECURITY_CLASSIFICATION_LEVEL ( 'unclassified' ) ;
#21 = EDGE_LOOP ( 'NONE', ( #122, #215, #6, #225, #227 ) ) ;
#22 = EDGE_CURVE ( 'NONE', #76, #68, #211, .T. ) ;
#23 = APPROVAL_PERSON_ORGANIZATION ( #42, #44, #16 ) ;
#24 = CIRCLE ( 'NONE', #101, 12.69999999999999900 ) ;
#25 = CC_DESIGN_APPROVAL ( #228, ( #218 ) ) ;
#26 = CARTESIAN_POINT ( 'NONE',  ( 12.69999999999999900, 2.442490654175340100E-015, -0.5191501183979191400 ) ) ;
#27 = ADVANCED_BREP_SHAPE_REPRESENTATION ( '112-0239E BK7 pl-cv 25.4 F-300', ( #56, #80 ), #64 ) ;
#28 = ORIENTED_EDGE ( 'NONE', *, *, #22, .F. ) ;
#29 = DIRECTION ( 'NONE',  ( 0.0000000000000000000, 0.0000000000000000000, 1.000000000000000000 ) ) ;
#30 = DIRECTION ( 'NONE',  ( 0.0000000000000000000, 0.0000000000000000000, 1.000000000000000000 ) ) ;
#31 = AXIS2_PLACEMENT_3D ( 'NONE', #69, #163, #202 ) ;
#32 = FACE_OUTER_BOUND ( 'NONE', #102, .T. ) ;
#33 = PLANE ( 'NONE',  #162 ) ;
#34 = DIRECTION ( 'NONE',  ( 1.000000000000000000, 0.0000000000000000000, 0.0000000000000000000 ) ) ;
#35 = CARTESIAN_POINT ( 'NONE',  ( -7.806255641895631900E-014, 4.293799312988603800, 0.1776304147057615200 ) ) ;
#36 = DIRECTION ( 'NONE',  ( 0.0000000000000000000, 0.0000000000000000000, 1.000000000000000000 ) ) ;
#37 = AXIS2_PLACEMENT_3D ( 'NONE', #153, #176, #8 ) ;
#38 = CALENDAR_DATE ( 2019, 15, 1 ) ;
#39 = PERSON_AND_ORGANIZATION_ROLE ( 'creator' ) ;
#40 = EDGE_CURVE ( 'NONE', #68, #2, #24, .T. ) ;
#41 = ORIENTED_EDGE ( 'NONE', *, *, #117, .T. ) ;
#42 = PERSON_AND_ORGANIZATION ( #92, #75 ) ;
#43 = ORIENTED_EDGE ( 'NONE', *, *, #138, .F. ) ;
#44 = APPROVAL ( #206, 'UNSPECIFIED' ) ;
#45 = ORIENTED_EDGE ( 'NONE', *, *, #72, .F. ) ;
#46 = CARTESIAN_POINT ( 'NONE',  ( -12.69999999999999900, 3.997792089092478900E-015, 3.100000000000000500 ) ) ;
#47 = AXIS2_PLACEMENT_3D ( 'NONE', #104, #29, #195 ) ;
#48 = CALENDAR_DATE ( 2019, 15, 1 ) ;
#49 = ADVANCED_FACE ( 'NONE', ( #32 ), #171, .T. ) ;
#50 = ADVANCED_FACE ( 'NONE', ( #164 ), #173, .T. ) ;
#51 = CARTESIAN_POINT ( 'NONE',  ( 8.496619969957302800, 12.85205454848682500, -0.7063089341096324700 ) ) ;
#52 = CARTESIAN_POINT ( 'NONE',  ( 8.535484892814569200, 4.293799312988603000, 0.002200023056767920000 ) ) ;
#53 = APPROVAL_DATE_TIME ( #105, #44 ) ;
#54 = CARTESIAN_POINT ( 'NONE',  ( -8.535484892814643800, -4.293799312988651800, 0.002200023056791068100 ) ) ;
#55 = CARTESIAN_POINT ( 'NONE',  ( 0.0000000000000000000, 26.11199999999999800, 3.100000000000000500 ) ) ;
#56 = MANIFOLD_SOLID_BREP ( 'Imported1', #19 ) ;
#57 = CALENDAR_DATE ( 2019, 15, 1 ) ;
#58 = CARTESIAN_POINT ( 'NONE',  ( -8.496619969957375700, -12.85205454848687300, -0.7063089341096068200 ) ) ;
#59 = CC_DESIGN_PERSON_AND_ORGANIZATION_ASSIGNMENT ( #204, #39, ( #175 ) ) ;
#60 = APPROVAL_DATE_TIME ( #208, #228 ) ;
#61 = APPROVAL ( #74, 'UNSPECIFIED' ) ;
#62 = LOCAL_TIME ( 10, 59, 37.00000000000000000, #124 ) ;
#63 = FACE_OUTER_BOUND ( 'NONE', #158, .T. ) ;
#64 =( GEOMETRIC_REPRESENTATION_CONTEXT ( 3 ) GLOBAL_UNCERTAINTY_ASSIGNED_CONTEXT ( ( #183 ) ) GLOBAL_UNIT_ASSIGNED_CONTEXT ( ( #145, #129, #116 ) ) REPRESENTATION_CONTEXT ( 'NONE', 'WORKASPACE' ) );
#65 = CC_DESIGN_DATE_AND_TIME_ASSIGNMENT ( #168, #78, ( #175 ) ) ;
#66 = COORDINATED_UNIVERSAL_TIME_OFFSET ( 2, 0, .AHEAD. ) ;
#67 = CARTESIAN_POINT ( 'NONE',  ( -4.263256414560599900E-014, 12.85205454848682500, -0.5316773358184645500 ) ) ;
#68 = VERTEX_POINT ( 'NONE', #152 ) ;
#69 = CARTESIAN_POINT ( 'NONE',  ( -4.263256414560599900E-014, -4.263256414560599900E-014, -155.5999999999999900 ) ) ;
#70 = CARTESIAN_POINT ( 'NONE',  ( -4.263256414560599900E-014, -4.293799312988651800, 0.1776304147057935500 ) ) ;
#71 = ORIENTED_EDGE ( 'NONE', *, *, #198, .F. ) ;
#72 = EDGE_CURVE ( 'NONE', #233, #132, #186, .T. ) ;
#73 = CARTESIAN_POINT ( 'NONE',  ( -4.269545262691414300, -4.293799312988652700, 0.1776304147057860800 ) ) ;
#74 = APPROVAL_STATUS ( 'not_yet_approved' ) ;
#75 = ORGANIZATION ( 'UNSPECIFIED', 'UNSPECIFIED', '' ) ;
#76 = VERTEX_POINT ( 'NONE', #159 ) ;
#77 = CARTESIAN_POINT ( 'NONE',  ( -4.250104592436135100, -12.85205454848687300, -0.5316773358184442300 ) ) ;
#78 = DATE_TIME_ROLE ( 'creation_date' ) ;
#79 = DESIGN_CONTEXT ( 'detailed design', #147, 'design' ) ;
#80 = AXIS2_PLACEMENT_3D ( 'NONE', #235, #205, #17 ) ;
#81 = ORIENTED_EDGE ( 'NONE', *, *, #40, .F. ) ;
#82 =( BOUNDED_SURFACE ( )  B_SPLINE_SURFACE ( 3, 3, ( 
 ( #67, #128, #51, #203 ),
 ( #112, #90, #52, #156 ),
 ( #70, #201, #220, #88 ),
 ( #127, #180, #14, #143 ) ),
 .UNSPECIFIED., .F., .F., .F. ) 
 B_SPLINE_SURFACE_WITH_KNOTS ( ( 4, 4 ),
 ( 4, 4 ),
 ( 0.0000000000000000000, 1.000000000000000000 ),
 ( 0.0000000000000000000, 1.000000000000000000 ),
 .UNSPECIFIED. ) 
 GEOMETRIC_REPRESENTATION_ITEM ( )  RATIONAL_B_SPLINE_SURFACE ( (
 ( 1.000000000000000000, 0.9994369997511422000, 0.9994369997511422000, 1.000000000000000000),
 ( 0.9977220336940082500, 0.9971603159407476100, 0.9971603159407476100, 0.9977220336940082500),
 ( 0.9977220336940082500, 0.9971603159407476100, 0.9971603159407476100, 0.9977220336940082500),
 ( 1.000000000000000000, 0.9994369997511422000, 0.9994369997511422000, 1.000000000000000000) ) ) 
 REPRESENTATION_ITEM ( '' )  SURFACE ( )  );
#83 = CIRCLE ( 'NONE', #31, 155.5999999999999900 ) ;
#84 = PRODUCT_RELATED_PRODUCT_CATEGORY ( 'detail', '', ( #146 ) ) ;
#85 = CIRCLE ( 'NONE', #107, 12.69999999999999900 ) ;
#86 = DIRECTION ( 'NONE',  ( 1.000000000000000000, 0.0000000000000000000, 0.0000000000000000000 ) ) ;
#87 = ADVANCED_FACE ( 'NONE', ( #174 ), #33, .T. ) ;
#88 = CARTESIAN_POINT ( 'NONE',  ( 12.79061371514960400, -4.293799312988651800, -0.3483644581787421800 ) ) ;
#89 = VERTEX_POINT ( 'NONE', #46 ) ;
#90 = CARTESIAN_POINT ( 'NONE',  ( 4.269545262691318400, 4.293799312988603000, 0.1776304147057679900 ) ) ;
#91 = CARTESIAN_POINT ( 'NONE',  ( -12.79061371514964500, 4.293799312988604700, -0.3483644581787668800 ) ) ;
#92 = PERSON ( 'UNSPECIFIED', 'UNSPECIFIED', 'UNSPECIFIED', ('UNSPECIFIED'), ('UNSPECIFIED'), ('UNSPECIFIED') ) ;
#93 = PERSON_AND_ORGANIZATION_ROLE ( 'creator' ) ;
#94 = LOCAL_TIME ( 10, 59, 37.00000000000000000, #66 ) ;
#95 = LINE ( 'NONE', #216, #115 ) ;
#96 = CC_DESIGN_PERSON_AND_ORGANIZATION_ASSIGNMENT ( #1, #166, ( #218 ) ) ;
#97 = PERSON_AND_ORGANIZATION_ROLE ( 'classification_officer' ) ;
#98 = APPLICATION_PROTOCOL_DEFINITION ( 'international standard', 'config_control_design', 1994, #147 ) ;
#99 = DATE_TIME_ROLE ( 'classification_date' ) ;
#100 = EDGE_LOOP ( 'NONE', ( #28, #136, #81 ) ) ;
#101 = AXIS2_PLACEMENT_3D ( 'NONE', #177, #196, #125 ) ;
#102 = EDGE_LOOP ( 'NONE', ( #182, #141, #223, #41, #45 ) ) ;
#103 = AXIS2_PLACEMENT_3D ( 'NONE', #212, #213, #108 ) ;
#104 = CARTESIAN_POINT ( 'NONE',  ( 4.996003610813200500E-016, 2.442490654175340100E-015, -0.5191501183979191400 ) ) ;
#105 = DATE_AND_TIME ( #48, #172 ) ;
#106 = CARTESIAN_POINT ( 'NONE',  ( 4.996003610813200500E-016, 2.442490654175340100E-015, -0.5191501183979191400 ) ) ;
#107 = AXIS2_PLACEMENT_3D ( 'NONE', #139, #36, #34 ) ;
#108 = DIRECTION ( 'NONE',  ( 1.000000000000000000, 0.0000000000000000000, 0.0000000000000000000 ) ) ;
#109 = CARTESIAN_POINT ( 'NONE',  ( -4.250104592436134300, 12.85205454848682500, -0.5316773358184719900 ) ) ;
#110 = CARTESIAN_POINT ( 'NONE',  ( 12.69999999999999900, 2.442490654175340100E-015, 3.100000000000000500 ) ) ;
#111 = CARTESIAN_POINT ( 'NONE',  ( -12.73237376492081900, 12.85205454848682500, -1.055277177792080000 ) ) ;
#112 = CARTESIAN_POINT ( 'NONE',  ( -4.263256414560599900E-014, 4.293799312988604700, 0.1776304147057680100 ) ) ;
#113 = AXIS2_PLACEMENT_3D ( 'NONE', #199, #13, #86 ) ;
#114 = APPROVAL_ROLE ( '' ) ;
#115 = VECTOR ( 'NONE', #181, 1000.000000000000000 ) ;
#116 =( NAMED_UNIT ( * ) SI_UNIT ( $, .STERADIAN. ) SOLID_ANGLE_UNIT ( ) );
#117 = EDGE_CURVE ( 'NONE', #89, #132, #120, .T. ) ;
#118 = CC_DESIGN_APPROVAL ( #61, ( #167 ) ) ;
#119 = DATE_AND_TIME ( #38, #197 ) ;
#120 = CIRCLE ( 'NONE', #193, 12.69999999999999900 ) ;
#121 = ADVANCED_FACE ( 'NONE', ( #63 ), #82, .F. ) ;
#122 = ORIENTED_EDGE ( 'NONE', *, *, #123, .F. ) ;
#123 = EDGE_CURVE ( 'NONE', #68, #89, #95, .T. ) ;
#124 = COORDINATED_UNIVERSAL_TIME_OFFSET ( 2, 0, .AHEAD. ) ;
#125 = DIRECTION ( 'NONE',  ( 1.000000000000000000, 0.0000000000000000000, 0.0000000000000000000 ) ) ;
#126 = CIRCLE ( 'NONE', #113, 12.69999999999999900 ) ;
#127 = CARTESIAN_POINT ( 'NONE',  ( -4.263256414560599900E-014, -12.85205454848687400, -0.5316773358184367900 ) ) ;
#128 = CARTESIAN_POINT ( 'NONE',  ( 4.250104592436038300, 12.85205454848682500, -0.5316773358184644400 ) ) ;
#129 =( NAMED_UNIT ( * ) PLANE_ANGLE_UNIT ( ) SI_UNIT ( $, .RADIAN. ) );
#130 = CARTESIAN_POINT ( 'NONE',  ( 12.69999999999999900, 2.442490654175340100E-015, -0.5191501183979191400 ) ) ;
#131 = PERSON_AND_ORGANIZATION_ROLE ( 'design_owner' ) ;
#132 = VERTEX_POINT ( 'NONE', #110 ) ;
#133 = APPROVAL_ROLE ( '' ) ;
#134 = VECTOR ( 'NONE', #219, 1000.000000000000000 ) ;
#135 = PERSON_AND_ORGANIZATION ( #92, #75 ) ;
#136 = ORIENTED_EDGE ( 'NONE', *, *, #138, .T. ) ;
#137 = APPROVAL_PERSON_ORGANIZATION ( #4, #228, #114 ) ;
#138 = EDGE_CURVE ( 'NONE', #76, #2, #83, .T. ) ;
#139 = CARTESIAN_POINT ( 'NONE',  ( 4.996003610813200500E-016, 2.442490654175340100E-015, -0.5191501183979191400 ) ) ;
#140 = CARTESIAN_POINT ( 'NONE',  ( -4.269545262691413400, 4.293799312988602100, 0.1776304147057605200 ) ) ;
#141 = ORIENTED_EDGE ( 'NONE', *, *, #22, .T. ) ;
#142 = DIRECTION ( 'NONE',  ( 1.000000000000000000, 0.0000000000000000000, -0.0000000000000000000 ) ) ;
#143 = CARTESIAN_POINT ( 'NONE',  ( 12.73237376492077800, -12.85205454848687400, -1.055277177792053100 ) ) ;
#144 = APPLICATION_CONTEXT ( 'configuration controlled 3d designs of mechanical parts and assemblies' ) ;
#145 =( LENGTH_UNIT ( ) NAMED_UNIT ( * ) SI_UNIT ( .MILLI., .METRE. ) );
#146 = PRODUCT ( '112-0239E BK7 pl-cv 25.4 F-300', '112-0239E BK7 pl-cv 25.4 F-300', '', ( #224 ) ) ;
#147 = APPLICATION_CONTEXT ( 'configuration controlled 3d designs of mechanical parts and assemblies' ) ;
#148 = LOCAL_TIME ( 10, 59, 37.00000000000000000, #149 ) ;
#149 = COORDINATED_UNIVERSAL_TIME_OFFSET ( 2, 0, .AHEAD. ) ;
#150 = CC_DESIGN_PERSON_AND_ORGANIZATION_ASSIGNMENT ( #192, #131, ( #146 ) ) ;
#151 = FACE_OUTER_BOUND ( 'NONE', #100, .T. ) ;
#152 = CARTESIAN_POINT ( 'NONE',  ( -12.69999999999999900, 3.997792089092478900E-015, -0.5191501183979191400 ) ) ;
#153 = CARTESIAN_POINT ( 'NONE',  ( 4.996003610813200500E-016, 2.442490654175340100E-015, -0.5191501183979191400 ) ) ;
#154 = APPROVAL_PERSON_ORGANIZATION ( #135, #61, #133 ) ;
#155 = DIRECTION ( 'NONE',  ( 1.000000000000000000, 0.0000000000000000000, 0.0000000000000000000 ) ) ;
#156 = CARTESIAN_POINT ( 'NONE',  ( 12.79061371514960000, 4.293799312988604700, -0.3483644581787676000 ) ) ;
#157 = PRODUCT_DEFINITION_SHAPE ( 'NONE', 'NONE',  #175 ) ;
#158 = EDGE_LOOP ( 'NONE', ( #43, #71, #221 ) ) ;
#159 = CARTESIAN_POINT ( 'NONE',  ( -4.263256414560599900E-014, 12.70000000000007600, -0.5191501183979365700 ) ) ;
#160 = CARTESIAN_POINT ( 'NONE',  ( -12.79061371514964700, -4.293799312988651800, -0.3483644581787412300 ) ) ;
#161 = CARTESIAN_POINT ( 'NONE',  ( -8.496619969957372100, 12.85205454848682500, -0.7063089341096345800 ) ) ;
#162 = AXIS2_PLACEMENT_3D ( 'NONE', #55, #231, #142 ) ;
#163 = DIRECTION ( 'NONE',  ( 1.000000000000000000, 0.0000000000000000000, 0.0000000000000000000 ) ) ;
#164 = FACE_OUTER_BOUND ( 'NONE', #21, .T. ) ;
#165 = APPLICATION_PROTOCOL_DEFINITION ( 'international standard', 'config_control_design', 1994, #144 ) ;
#166 = PERSON_AND_ORGANIZATION_ROLE ( 'design_supplier' ) ;
#167 = SECURITY_CLASSIFICATION ( '', '', #20 ) ;
#168 = DATE_AND_TIME ( #7, #62 ) ;
#169 = CIRCLE ( 'NONE', #47, 12.69999999999999900 ) ;
#170 = APPROVAL_STATUS ( 'not_yet_approved' ) ;
#171 = CYLINDRICAL_SURFACE ( 'NONE', #5, 12.69999999999999900 ) ;
#172 = LOCAL_TIME ( 10, 59, 37.00000000000000000, #194 ) ;
#173 = CYLINDRICAL_SURFACE ( 'NONE', #103, 12.69999999999999900 ) ;
#174 = FACE_OUTER_BOUND ( 'NONE', #209, .T. ) ;
#175 = PRODUCT_DEFINITION ( 'UNKNOWN', '', #218, #79 ) ;
#176 = DIRECTION ( 'NONE',  ( 0.0000000000000000000, 0.0000000000000000000, 1.000000000000000000 ) ) ;
#177 = CARTESIAN_POINT ( 'NONE',  ( 4.996003610813200500E-016, 2.442490654175340100E-015, -0.5191501183979191400 ) ) ;
#178 = ORIENTED_EDGE ( 'NONE', *, *, #179, .F. ) ;
#179 = EDGE_CURVE ( 'NONE', #132, #89, #126, .T. ) ;
#180 = CARTESIAN_POINT ( 'NONE',  ( 4.250104592436039200, -12.85205454848687300, -0.5316773358184369000 ) ) ;
#181 = DIRECTION ( 'NONE',  ( 0.0000000000000000000, 0.0000000000000000000, 1.000000000000000000 ) ) ;
#182 = ORIENTED_EDGE ( 'NONE', *, *, #198, .T. ) ;
#183 = UNCERTAINTY_MEASURE_WITH_UNIT (LENGTH_MEASURE( 1.000000000000000100E-005 ), #145, 'distance_accuracy_value', 'NONE');
#184 = DIRECTION ( 'NONE',  ( -0.0000000000000000000, -0.0000000000000000000, -1.000000000000000000 ) ) ;
#185 = DATE_AND_TIME ( #57, #148 ) ;
#186 = LINE ( 'NONE', #26, #134 ) ;
#187 = CARTESIAN_POINT ( 'NONE',  ( -7.806255641895631900E-014, -12.85205454848687400, -0.5316773358184431200 ) ) ;
#188 = CARTESIAN_POINT ( 'NONE',  ( -7.806255641895631900E-014, -4.293799312988652700, 0.1776304147057871100 ) ) ;
#189 = SHAPE_DEFINITION_REPRESENTATION ( #157, #27 ) ;
#190 = ORIENTED_EDGE ( 'NONE', *, *, #117, .F. ) ;
#191 =( BOUNDED_SURFACE ( )  B_SPLINE_SURFACE ( 3, 3, ( 
 ( #111, #161, #109, #11 ),
 ( #91, #9, #140, #35 ),
 ( #160, #54, #73, #188 ),
 ( #15, #58, #77, #187 ) ),
 .UNSPECIFIED., .F., .F., .F. ) 
 B_SPLINE_SURFACE_WITH_KNOTS ( ( 4, 4 ),
 ( 4, 4 ),
 ( 0.0000000000000000000, 1.000000000000000000 ),
 ( 0.0000000000000000000, 1.000000000000000000 ),
 .UNSPECIFIED. ) 
 GEOMETRIC_REPRESENTATION_ITEM ( )  RATIONAL_B_SPLINE_SURFACE ( (
 ( 1.000000000000000000, 0.9994369997511422000, 0.9994369997511422000, 1.000000000000000000),
 ( 0.9977220336940082500, 0.9971603159407476100, 0.9971603159407476100, 0.9977220336940082500),
 ( 0.9977220336940082500, 0.9971603159407476100, 0.9971603159407476100, 0.9977220336940082500),
 ( 1.000000000000000000, 0.9994369997511422000, 0.9994369997511422000, 1.000000000000000000) ) ) 
 REPRESENTATION_ITEM ( '' )  SURFACE ( )  );
#192 = PERSON_AND_ORGANIZATION ( #92, #75 ) ;
#193 = AXIS2_PLACEMENT_3D ( 'NONE', #10, #184, #232 ) ;
#194 = COORDINATED_UNIVERSAL_TIME_OFFSET ( 2, 0, .AHEAD. ) ;
#195 = DIRECTION ( 'NONE',  ( 1.000000000000000000, 0.0000000000000000000, 0.0000000000000000000 ) ) ;
#196 = DIRECTION ( 'NONE',  ( 0.0000000000000000000, 0.0000000000000000000, 1.000000000000000000 ) ) ;
#197 = LOCAL_TIME ( 10, 59, 37.00000000000000000, #222 ) ;
#198 = EDGE_CURVE ( 'NONE', #233, #76, #85, .T. ) ;
#199 = CARTESIAN_POINT ( 'NONE',  ( 4.996003610813200500E-016, 2.442490654175340100E-015, 3.100000000000000500 ) ) ;
#200 = PERSON_AND_ORGANIZATION ( #92, #75 ) ;
#201 = CARTESIAN_POINT ( 'NONE',  ( 4.269545262691318400, -4.293799312988651800, 0.1776304147057936000 ) ) ;
#202 = DIRECTION ( 'NONE',  ( 0.0000000000000000000, 1.000000000000000000, 7.135109412758075500E-016 ) ) ;
#203 = CARTESIAN_POINT ( 'NONE',  ( 12.73237376492077500, 12.85205454848682500, -1.055277177792080900 ) ) ;
#204 = PERSON_AND_ORGANIZATION ( #92, #75 ) ;
#205 = DIRECTION ( 'NONE',  ( 0.0000000000000000000, 0.0000000000000000000, 1.000000000000000000 ) ) ;
#206 = APPROVAL_STATUS ( 'not_yet_approved' ) ;
#207 = CC_DESIGN_APPROVAL ( #44, ( #175 ) ) ;
#208 = DATE_AND_TIME ( #230, #94 ) ;
#209 = EDGE_LOOP ( 'NONE', ( #178, #190 ) ) ;
#210 = CC_DESIGN_PERSON_AND_ORGANIZATION_ASSIGNMENT ( #214, #93, ( #218 ) ) ;
#211 = CIRCLE ( 'NONE', #37, 12.69999999999999900 ) ;
#212 = CARTESIAN_POINT ( 'NONE',  ( 4.996003610813200500E-016, 2.442490654175340100E-015, -0.5191501183979191400 ) ) ;
#213 = DIRECTION ( 'NONE',  ( 0.0000000000000000000, 0.0000000000000000000, 1.000000000000000000 ) ) ;
#214 = PERSON_AND_ORGANIZATION ( #92, #75 ) ;
#215 = ORIENTED_EDGE ( 'NONE', *, *, #40, .T. ) ;
#216 = CARTESIAN_POINT ( 'NONE',  ( -12.69999999999999900, 3.997792089092478900E-015, -0.5191501183979191400 ) ) ;
#217 = ADVANCED_FACE ( 'NONE', ( #151 ), #191, .F. ) ;
#218 = PRODUCT_DEFINITION_FORMATION_WITH_SPECIFIED_SOURCE ( 'ANY', '', #146, .NOT_KNOWN. ) ;
#219 = DIRECTION ( 'NONE',  ( 0.0000000000000000000, 0.0000000000000000000, 1.000000000000000000 ) ) ;
#220 = CARTESIAN_POINT ( 'NONE',  ( 8.535484892814572800, -4.293799312988651800, 0.002200023056793398700 ) ) ;
#221 = ORIENTED_EDGE ( 'NONE', *, *, #3, .F. ) ;
#222 = COORDINATED_UNIVERSAL_TIME_OFFSET ( 2, 0, .AHEAD. ) ;
#223 = ORIENTED_EDGE ( 'NONE', *, *, #123, .T. ) ;
#224 = MECHANICAL_CONTEXT ( 'NONE', #144, 'mechanical' ) ;
#225 = ORIENTED_EDGE ( 'NONE', *, *, #72, .T. ) ;
#226 = CC_DESIGN_PERSON_AND_ORGANIZATION_ASSIGNMENT ( #200, #97, ( #167 ) ) ;
#227 = ORIENTED_EDGE ( 'NONE', *, *, #179, .T. ) ;
#228 = APPROVAL ( #170, 'UNSPECIFIED' ) ;
#229 = CARTESIAN_POINT ( 'NONE',  ( -4.263256414560599900E-014, -12.70000000000011800, -0.5191501183979365700 ) ) ;
#230 = CALENDAR_DATE ( 2019, 15, 1 ) ;
#231 = DIRECTION ( 'NONE',  ( 0.0000000000000000000, 0.0000000000000000000, 1.000000000000000000 ) ) ;
#232 = DIRECTION ( 'NONE',  ( 1.000000000000000000, 0.0000000000000000000, 0.0000000000000000000 ) ) ;
#233 = VERTEX_POINT ( 'NONE', #130 ) ;
#234 = CC_DESIGN_DATE_AND_TIME_ASSIGNMENT ( #185, #99, ( #167 ) ) ;
#235 = CARTESIAN_POINT ( 'NONE',  ( 0.0000000000000000000, 0.0000000000000000000, 0.0000000000000000000 ) ) ;
ENDSEC;
END-ISO-10303-21;
